  0
SECTION
  2
HEADER
  9
$ACADVER
  1
AC1009
  9
$INSBASE
 10
0
 20
0
 30
0
  9
$EXTMIN
 10
0
 20
0
  9
$EXTMAX
 10
1260
 20
891
  9
$LIMMIN
 10
0
 20
0
  9
$LIMMAX
 10
1260
 20
891
  9
$LTSCALE
 40
3
  0
ENDSEC
  0
SECTION
  2
TABLES
  0
TABLE
  2
LTYPE
 70
     9
  0
LTYPE
  2
CONTINUOUS
 70
    64
  3
実線
 72
    65
 73
     0
 40
0.0
  0
LTYPE
  2
DASHED1
 70
    64
  3
--  --  --  --  --  --  --  --  
 72
    65
 73
     2
 40
2.5
 49
1.25
 49
-1.25
  0
LTYPE
  2
DASHED2
 70
    64
  3
----    ----    ----    ----    
 72
    65
 73
     2
 40
5.0
 49
2.5
 49
-2.5
  0
LTYPE
  2
DASHED3
 70
    64
  3
------  ------  ------  ------  
 72
    65
 73
     2
 40
5.0
 49
3.75
 49
-1.25
  0
LTYPE
  2
CENTER1
 70
    64
  3
----- - ----- - ----- - ----- - 
 72
    65
 73
     4
 40
10.0
 49
6.25
 49
-1.25
 49
1.25
 49
-1.25
  0
LTYPE
  2
CENTER2
 70
    64
  3
----------  --  ----------  --  
 72
    65
 73
     4
 40
20.0
 49
12.5
 49
-2.5
 49
2.5
 49
-2.5
  0
LTYPE
  2
PHANTOM1
 70
    64
  3
--- - - --- - - --- - - --- - - 
 72
    65
 73
     6
 40
10.0
 49
3.25
 49
-1.25
 49
1.25
 49
-1.25
 49
1.25
 49
-1.25
  0
LTYPE
  2
PHANTOM2
 70
    64
  3
--------  -  -  --------  -  -  
 72
    65
 73
     6
 40
20.0
 49
10.0
 49
-2.5
 49
1.25
 49
-2.5
 49
1.25
 49
-2.5
  0
LTYPE
  2
DOT
 70
    64
  3
-   -   -   -   -   -   -   -   
 72
    65
 73
     2
 40
2.5
 49
0.625
 49
-1.875
  0
LTYPE
  2
DUMMY
 70
    64
  3
ダミー
 72
    65
 73
     0
 40
0.0
  0
LTYPE
  2
RAND1
 70
    64
  3
ランダム線1
 72
    65
 73
     4
 40
10.0
 49
1.0
 49
-2.0
 49
3.0
 49
-4.0
  0
LTYPE
  2
RAND2
 70
    64
  3
ランダム線2
 72
    65
 73
     4
 40
14.0
 49
2.0
 49
-3.0
 49
4.0
 49
-5.0
  0
LTYPE
  2
RAND3
 70
    64
  3
ランダム線3
 72
    65
 73
     4
 40
18.0
 49
3.0
 49
-4.0
 49
5.0
 49
-6.0
  0
LTYPE
  2
RAND4
 70
    64
  3
ランダム線4
 72
    65
 73
     4
 40
22.0
 49
4.0
 49
-5.0
 49
6.0
 49
-7.0
  0
LTYPE
  2
RAND5
 70
    64
  3
ランダム線5
 72
    65
 73
     4
 40
26.0
 49
5.0
 49
-6.0
 49
7.0
 49
-8.0
  0
LTYPE
  2
LONG1
 70
    64
  3
----------  --  ----------  --  
 72
    65
 73
     4
 40
40.0
 49
32.5
 49
-2.5
 49
2.5
 49
-2.5
  0
LTYPE
  2
LONG2
 70
    64
  3
--------  -  -  --------  -  -  
 72
    65
 73
     6
 40
40.0
 49
30.0
 49
-2.5
 49
1.25
 49
-2.5
 49
1.25
 49
-2.5
  0
LTYPE
  2
LONG3
 70
    64
  3
+++++++++++++++..+++++++++++++++
 72
    65
 73
     2
 40
40.0
 49
37.5
 49
-2.5
  0
LTYPE
  2
LONG4
 70
    64
  3
+++++++++++++++..+++++++++++++++
 72
    65
 73
     2
 40
80.0
 49
75.0
 49
-5.0
  0
LTYPE
  2
LONG5
 70
    64
  3
----------  --  ----------  --  
 72
    65
 73
     4
 40
60.0
 49
37.5
 49
-7.5
 49
7.5
 49
-7.5
  0
LTYPE
  2
dashed
 70
   64
  3
-------   -------------   ------
 72
   65
 73
    2
 40
7.5
 49
6
 49
-1.5
  0
LTYPE
  2
dashed_spaced
 70
   64
  3
----        --------        ----
 72
   65
 73
    2
 40
12
 49
6
 49
-6
  0
LTYPE
  2
long_dashed_dotted
 70
   64
  3
------------- --- --------------
 72
   65
 73
    4
 40
15.25
 49
12
 49
-1.5
 49
0.25
 49
-1.5
  0
LTYPE
  2
long_dashed_double-dotted
 70
   64
  3
----------- --- --- ------------
 72
   65
 73
    6
 40
17
 49
12
 49
-1.5
 49
0.25
 49
-1.5
 49
0.25
 49
-1.5
  0
LTYPE
  2
long_dashed_triplicate-dotted
 70
   64
  3
--------- --- --- --- ----------
 72
   65
 73
    8
 40
18.75
 49
12
 49
-1.5
 49
0.25
 49
-1.5
 49
0.25
 49
-1.5
 49
0.25
 49
-1.5
  0
LTYPE
  2
dotted
 70
   64
  3
   -       -       -       -    
 72
   65
 73
    2
 40
1.75
 49
0.25
 49
-1.5
  0
LTYPE
  2
chain
 70
   64
  3
-------------- -- --------------
 72
   65
 73
    4
 40
18.5
 49
12
 49
-1.5
 49
3.5
 49
-1.5
  0
LTYPE
  2
chain_double_dash
 70
   64
  3
------------ -- -- -------------
 72
   65
 73
    6
 40
23.5
 49
12
 49
-1.5
 49
3.5
 49
-1.5
 49
3.5
 49
-1.5
  0
LTYPE
  2
dashed_dotted
 70
   64
  3
-----------     -     ----------
 72
   65
 73
    4
 40
9.25
 49
6
 49
-1.5
 49
0.25
 49
-1.5
  0
LTYPE
  2
double-dashed_dotted
 70
   64
  3
------   -----------   -   -----
 72
   65
 73
    6
 40
16.75
 49
6
 49
-1.5
 49
6
 49
-1.5
 49
0.25
 49
-1.5
  0
LTYPE
  2
dashed_double-dotted
 70
   64
  3
---------    -    -    ---------
 72
   65
 73
    6
 40
11
 49
6
 49
-1.5
 49
0.25
 49
-1.5
 49
0.25
 49
-1.5
  0
LTYPE
  2
double-dashed_double-dotted
 70
   64
  3
-----   ---------   -   -   ----
 72
   65
 73
    8
 40
18.5
 49
6
 49
-1.5
 49
6
 49
-1.5
 49
0.25
 49
-1.5
 49
0.25
 49
-1.5
  0
LTYPE
  2
dashed_triplicate-dotted
 70
   64
  3
-------    -    -    -    ------
 72
   65
 73
    8
 40
12.75
 49
6
 49
-1.5
 49
0.25
 49
-1.5
 49
0.25
 49
-1.5
 49
0.25
 49
-1.5
  0
LTYPE
  2
double-dashed_triplicate-dotted
 70
   64
  3
-----  ---------  -  -  -  -----
 72
   65
 73
   10
 40
20.25
 49
6
 49
-1.5
 49
6
 49
-1.5
 49
0.25
 49
-1.5
 49
0.25
 49
-1.5
 49
0.25
 49
-1.5
  0
LTYPE
  2
undefined
 70
   64
  3
--------------------------------
 72
   65
 73
    0
 40
0
  0
LTYPE
  2
STYLE_01
 70
   64
  3
----        --------        ----
 72
   65
 73
    2
 40
0.4166412353515625
 49
0.208282470703125
 49
-0.2083587646484375
  0
LTYPE
  2
STYLE_02
 70
   64
  3
------     -----------     -----
 72
   65
 73
    2
 40
0.694427490234375
 49
0.4860687255859375
 49
-0.2083587646484375
  0
LTYPE
  2
STYLE_03
 70
   64
  3
-------   -------------   ------
 72
   65
 73
    2
 40
1.2499999999999996
 49
1.0416412353515621
 49
-0.2083587646484375
  0
LTYPE
  2
STYLE_04
 70
   64
  3
-------  --------------  -------
 72
   65
 73
    2
 40
1.5277099609375
 49
1.319427490234375
 49
-0.208282470703125
  0
LTYPE
  2
STYLE_05
 70
   64
  3
---           -----           --
 72
   65
 73
    2
 40
0.208282470703125
 49
0.069427490234375
 49
-0.13885498046875
  0
LTYPE
  2
STYLE_06
 70
   64
  3
----------      --    ----------
 72
   65
 73
    4
 40
1.0416412353515625
 49
0.625
 49
-0.208282470703125
 49
0.069427490234375
 49
-0.1389312744140625
  0
LTYPE
  2
STYLE_07
 70
   64
  3
-----    -----------    -  -----
 72
   65
 73
    6
 40
1.875
 49
0.625
 49
-0.208282470703125
 49
0.625
 49
-0.2083587646484375
 49
0.069427490234375
 49
-0.1389312744140625
  0
LTYPE
  2
STYLE_08
 70
   64
  3
--------     --    --    -------
 72
   65
 73
    6
 40
1.25
 49
0.625
 49
-0.208282470703125
 49
0.069427490234375
 49
-0.1389312744140625
 49
0.069427490234375
 49
-0.1389312744140625
  0
LTYPE
  2
STYLE_09
 70
   64
  3
------------  ----  ------------
 72
   65
 73
    4
 40
5
 49
3.75
 49
-0.2777862548828125
 49
0.694427490234375
 49
-0.2777862548828125
  0
LTYPE
  2
STYLE_10
 70
   64
  3
----------- ---- ---  ----------
 72
   65
 73
    6
 40
5.9375
 49
3.75
 49
-0.2777862548828125
 49
0.694427490234375
 49
-0.2777862548828125
 49
0.625
 49
-0.3125
  0
ENDTAB
  0
TABLE
  2
STYLE
  5
3
100
AcDbSymbolTable
 70
     1
  0
STYLE
  5
10
100
AcDbSymbolTableRecord
100
AcDbTextStyleTableRecord
  2
STANDARD
 70
     0
 40
0.0
 41
1.0
 50
0.0
 71
     0
 42
0.2
  3
txt
  4
bigfont.shx
  0
STYLE
  5
26
100
AcDbSymbolTableRecord
100
AcDbTextStyleTableRecord
  2
TATEGAKI
 70
    68
 40
0.0
 41
1.0
 50
0.0
 71
     0
 42
1.0
  3
txt
  4
bigfont.shx
  0
ENDTAB
  0
TABLE
  2
LAYER
 70
   18
  0
LAYER
  2
_0-0_本体
 70
   64
 62
    7
  6
CONTINUOUS
  0
LAYER
  2
_0-1_躯体
 70
   64
 62
    7
  6
CONTINUOUS
  0
LAYER
  2
_0-2_造作工事
 70
   64
 62
    7
  6
CONTINUOUS
  0
LAYER
  2
_0-3_雑工事
 70
   64
 62
    7
  6
CONTINUOUS
  0
LAYER
  2
_0-7_ハッチ
 70
   64
 62
    7
  6
CONTINUOUS
  0
LAYER
  2
_0-d_寸法
 70
   64
 62
    7
  6
CONTINUOUS
  0
LAYER
  2
_0-e_文字
 70
   64
 62
    7
  6
CONTINUOUS
  0
LAYER
  2
_0-f_
 70
   64
 62
    7
  6
CONTINUOUS
  0
LAYER
  2
_1-0_
 70
   64
 62
    7
  6
CONTINUOUS
  0
LAYER
  2
_1-1_
 70
   64
 62
    7
  6
CONTINUOUS
  0
LAYER
  2
_1-d_
 70
   64
 62
    7
  6
CONTINUOUS
  0
LAYER
  2
_1-e_
 70
   64
 62
    7
  6
CONTINUOUS
  0
LAYER
  2
_2-0_
 70
   64
 62
    7
  6
CONTINUOUS
  0
LAYER
  2
_2-7_
 70
   64
 62
    7
  6
CONTINUOUS
  0
LAYER
  2
_2-d_
 70
   64
 62
    7
  6
CONTINUOUS
  0
LAYER
  2
_2-e_
 70
   64
 62
    7
  6
CONTINUOUS
  0
LAYER
  2
_f-0_
 70
   64
 62
    7
  6
CONTINUOUS
  0
LAYER
  2
ADD_LINE
 70
   64
 62
    7
  6
CONTINUOUS
  0
ENDTAB
  0
ENDSEC
  0
SECTION
  2
BLOCKS
  0
BLOCK
  2
-000-_DOTSMALL
 70
   64
 10
0
 20
0
 30
0
  0
CIRCLE
  8
_0-0_本体
  6
CONTINUOUS
 62
    7
 10
0
 20
0
 40
0.1875
  0
LINE
  8
_0-0_本体
  6
CONTINUOUS
 62
    7
 10
0.1875
 20
0
 11
-0.1875
 21
0
  0
ENDBLK
  0
ENDSEC
  0
SECTION
  2
ENTITIES
  0
LINE
  8
_0-0_本体
  6
CONTINUOUS
 62
    7
 10
352.70419182208389
 20
283.53220431091574
 11
351.81249182208376
 21
279.47100431091582
  0
LINE
  8
_0-0_本体
  6
CONTINUOUS
 62
    7
 10
351.81249182208376
 20
279.47100431091582
 11
350.92079182208374
 21
278.69260431091573
  0
LINE
  8
_0-0_本体
  6
CONTINUOUS
 62
    7
 10
350.92079182208374
 20
278.69260431091573
 11
351.81249182208376
 21
284.31060431091583
  0
LINE
  8
_0-0_本体
  6
CONTINUOUS
 62
    7
 10
351.81249182208376
 20
284.31060431091583
 11
352.70419182208389
 21
283.53220431091574
  0
LINE
  8
_0-0_本体
  6
CONTINUOUS
 62
    7
 10
353.59599182208376
 20
284.31060431091583
 11
352.70419182208389
 21
278.69260431091573
  0
LINE
  8
_0-0_本体
  6
CONTINUOUS
 62
    7
 10
352.70419182208389
 20
278.69260431091573
 11
351.81249182208376
 21
279.47100431091582
  0
LINE
  8
_0-0_本体
  6
CONTINUOUS
 62
    7
 10
351.81249182208376
 20
279.47100431091582
 11
352.70419182208389
 21
283.53220431091574
  0
LINE
  8
_0-0_本体
  6
CONTINUOUS
 62
    7
 10
352.70419182208389
 20
283.53220431091574
 11
353.59599182208376
 21
284.31060431091583
  0
LINE
  8
_0-0_本体
  6
CONTINUOUS
 62
    7
 10
354.48769182208378
 20
283.53220431091574
 11
353.59599182208376
 21
279.47100431091582
  0
LINE
  8
_0-0_本体
  6
CONTINUOUS
 62
    7
 10
353.59599182208376
 20
279.47100431091582
 11
352.70419182208389
 21
278.69260431091573
  0
LINE
  8
_0-0_本体
  6
CONTINUOUS
 62
    7
 10
352.70419182208389
 20
278.69260431091573
 11
353.59599182208376
 21
284.31060431091583
  0
LINE
  8
_0-0_本体
  6
CONTINUOUS
 62
    7
 10
353.59599182208376
 20
284.31060431091583
 11
354.48769182208378
 21
283.53220431091574
  0
LINE
  8
_0-0_本体
  6
CONTINUOUS
 62
    7
 10
355.37939182208385
 20
284.31060431091583
 11
354.48769182208378
 21
278.69260431091573
  0
LINE
  8
_0-0_本体
  6
CONTINUOUS
 62
    7
 10
354.48769182208378
 20
278.69260431091573
 11
353.59599182208376
 21
279.47100431091582
  0
LINE
  8
_0-0_本体
  6
CONTINUOUS
 62
    7
 10
353.59599182208376
 20
279.47100431091582
 11
354.48769182208378
 21
283.53220431091574
  0
LINE
  8
_0-0_本体
  6
CONTINUOUS
 62
    7
 10
354.48769182208378
 20
283.53220431091574
 11
355.37939182208385
 21
284.31060431091583
  0
LINE
  8
_0-0_本体
  6
CONTINUOUS
 62
    7
 10
356.27119182208389
 20
283.53220431091574
 11
355.37939182208385
 21
279.47100431091582
  0
LINE
  8
_0-0_本体
  6
CONTINUOUS
 62
    7
 10
355.37939182208385
 20
279.47100431091582
 11
354.48769182208378
 21
278.69260431091573
  0
LINE
  8
_0-0_本体
  6
CONTINUOUS
 62
    7
 10
354.48769182208378
 20
278.69260431091573
 11
355.37939182208385
 21
284.31060431091583
  0
LINE
  8
_0-0_本体
  6
CONTINUOUS
 62
    7
 10
355.37939182208385
 20
284.31060431091583
 11
356.27119182208389
 21
283.53220431091574
  0
LINE
  8
_0-0_本体
  6
CONTINUOUS
 62
    7
 10
357.16289182208379
 20
284.31060431091583
 11
356.27119182208389
 21
278.69260431091573
  0
LINE
  8
_0-0_本体
  6
CONTINUOUS
 62
    7
 10
356.27119182208389
 20
278.69260431091573
 11
355.37939182208385
 21
279.47100431091582
  0
LINE
  8
_0-0_本体
  6
CONTINUOUS
 62
    7
 10
355.37939182208385
 20
279.47100431091582
 11
356.27119182208389
 21
283.53220431091574
  0
LINE
  8
_0-0_本体
  6
CONTINUOUS
 62
    7
 10
356.27119182208389
 20
283.53220431091574
 11
357.16289182208379
 21
284.31060431091583
  0
LINE
  8
_0-0_本体
  6
CONTINUOUS
 62
    7
 10
358.05449182208389
 20
283.53220431091574
 11
357.16289182208379
 21
279.47100431091582
  0
LINE
  8
_0-0_本体
  6
CONTINUOUS
 62
    7
 10
357.16289182208379
 20
279.47100431091582
 11
356.27119182208389
 21
278.69260431091573
  0
LINE
  8
_0-0_本体
  6
CONTINUOUS
 62
    7
 10
356.27119182208389
 20
278.69260431091573
 11
357.16289182208379
 21
284.31060431091583
  0
LINE
  8
_0-0_本体
  6
CONTINUOUS
 62
    7
 10
357.16289182208379
 20
284.31060431091583
 11
358.05449182208389
 21
283.53220431091574
  0
LINE
  8
_0-0_本体
  6
CONTINUOUS
 62
    7
 10
358.94629182208371
 20
284.31060431091583
 11
358.05449182208389
 21
278.69260431091573
  0
LINE
  8
_0-0_本体
  6
CONTINUOUS
 62
    7
 10
358.05449182208389
 20
278.69260431091573
 11
357.16289182208379
 21
279.47100431091582
  0
LINE
  8
_0-0_本体
  6
CONTINUOUS
 62
    7
 10
357.16289182208379
 20
279.47100431091582
 11
358.05449182208389
 21
283.53220431091574
  0
LINE
  8
_0-0_本体
  6
CONTINUOUS
 62
    7
 10
358.05449182208389
 20
283.53220431091574
 11
358.94629182208371
 21
284.31060431091583
  0
LINE
  8
_0-0_本体
  6
CONTINUOUS
 62
    7
 10
359.83799182208372
 20
283.53220431091574
 11
358.94629182208371
 21
279.47100431091582
  0
LINE
  8
_0-0_本体
  6
CONTINUOUS
 62
    7
 10
358.94629182208371
 20
279.47100431091582
 11
358.05449182208389
 21
278.69260431091573
  0
LINE
  8
_0-0_本体
  6
CONTINUOUS
 62
    7
 10
358.05449182208389
 20
278.69260431091573
 11
358.94629182208371
 21
284.31060431091583
  0
LINE
  8
_0-0_本体
  6
CONTINUOUS
 62
    7
 10
358.94629182208371
 20
284.31060431091583
 11
359.83799182208372
 21
283.53220431091574
  0
LINE
  8
_0-0_本体
  6
CONTINUOUS
 62
    7
 10
360.72969182208374
 20
284.31060431091583
 11
359.83799182208372
 21
278.69260431091573
  0
LINE
  8
_0-0_本体
  6
CONTINUOUS
 62
    7
 10
359.83799182208372
 20
278.69260431091573
 11
358.94629182208371
 21
279.47100431091582
  0
LINE
  8
_0-0_本体
  6
CONTINUOUS
 62
    7
 10
358.94629182208371
 20
279.47100431091582
 11
359.83799182208372
 21
283.53220431091574
  0
LINE
  8
_0-0_本体
  6
CONTINUOUS
 62
    7
 10
359.83799182208372
 20
283.53220431091574
 11
360.72969182208374
 21
284.31060431091583
  0
LINE
  8
_0-0_本体
  6
CONTINUOUS
 62
    7
 10
361.62149182208384
 20
283.53220431091574
 11
360.72969182208374
 21
279.47100431091582
  0
LINE
  8
_0-0_本体
  6
CONTINUOUS
 62
    7
 10
360.72969182208374
 20
279.47100431091582
 11
359.83799182208372
 21
278.69260431091573
  0
LINE
  8
_0-0_本体
  6
CONTINUOUS
 62
    7
 10
359.83799182208372
 20
278.69260431091573
 11
360.72969182208374
 21
284.31060431091583
  0
LINE
  8
_0-0_本体
  6
CONTINUOUS
 62
    7
 10
360.72969182208374
 20
284.31060431091583
 11
361.62149182208384
 21
283.53220431091574
  0
LINE
  8
_0-0_本体
  6
CONTINUOUS
 62
    7
 10
362.5131918220838
 20
284.31060431091583
 11
361.62149182208384
 21
278.69260431091573
  0
LINE
  8
_0-0_本体
  6
CONTINUOUS
 62
    7
 10
361.62149182208384
 20
278.69260431091573
 11
360.72969182208374
 21
279.47100431091582
  0
LINE
  8
_0-0_本体
  6
CONTINUOUS
 62
    7
 10
360.72969182208374
 20
279.47100431091582
 11
361.62149182208384
 21
283.53220431091574
  0
LINE
  8
_0-0_本体
  6
CONTINUOUS
 62
    7
 10
361.62149182208384
 20
283.53220431091574
 11
362.5131918220838
 21
284.31060431091583
  0
LINE
  8
_0-0_本体
  6
CONTINUOUS
 62
    7
 10
363.40489182208375
 20
283.53220431091574
 11
362.5131918220838
 21
279.47100431091582
  0
LINE
  8
_0-0_本体
  6
CONTINUOUS
 62
    7
 10
362.5131918220838
 20
279.47100431091582
 11
361.62149182208384
 21
278.69260431091573
  0
LINE
  8
_0-0_本体
  6
CONTINUOUS
 62
    7
 10
361.62149182208384
 20
278.69260431091573
 11
362.5131918220838
 21
284.31060431091583
  0
LINE
  8
_0-0_本体
  6
CONTINUOUS
 62
    7
 10
362.5131918220838
 20
284.31060431091583
 11
363.40489182208375
 21
283.53220431091574
  0
LINE
  8
_0-0_本体
  6
CONTINUOUS
 62
    7
 10
364.2966918220838
 20
284.31060431091583
 11
363.40489182208375
 21
278.69260431091573
  0
LINE
  8
_0-0_本体
  6
CONTINUOUS
 62
    7
 10
363.40489182208375
 20
278.69260431091573
 11
362.5131918220838
 21
279.47100431091582
  0
LINE
  8
_0-0_本体
  6
CONTINUOUS
 62
    7
 10
362.5131918220838
 20
279.47100431091582
 11
363.40489182208375
 21
283.53220431091574
  0
LINE
  8
_0-0_本体
  6
CONTINUOUS
 62
    7
 10
363.40489182208375
 20
283.53220431091574
 11
364.2966918220838
 21
284.31060431091583
  0
LINE
  8
_0-0_本体
  6
CONTINUOUS
 62
    7
 10
365.18839182208376
 20
283.53220431091574
 11
364.2966918220838
 21
279.47100431091582
  0
LINE
  8
_0-0_本体
  6
CONTINUOUS
 62
    7
 10
364.2966918220838
 20
279.47100431091582
 11
363.40489182208375
 21
278.69260431091573
  0
LINE
  8
_0-0_本体
  6
CONTINUOUS
 62
    7
 10
363.40489182208375
 20
278.69260431091573
 11
364.2966918220838
 21
284.31060431091583
  0
LINE
  8
_0-0_本体
  6
CONTINUOUS
 62
    7
 10
364.2966918220838
 20
284.31060431091583
 11
365.18839182208376
 21
283.53220431091574
  0
LINE
  8
_0-0_本体
  6
CONTINUOUS
 62
    7
 10
366.0799918220838
 20
284.31060431091583
 11
365.18839182208376
 21
278.69260431091573
  0
LINE
  8
_0-0_本体
  6
CONTINUOUS
 62
    7
 10
365.18839182208376
 20
278.69260431091573
 11
364.2966918220838
 21
279.47100431091582
  0
LINE
  8
_0-0_本体
  6
CONTINUOUS
 62
    7
 10
364.2966918220838
 20
279.47100431091582
 11
365.18839182208376
 21
283.53220431091574
  0
LINE
  8
_0-0_本体
  6
CONTINUOUS
 62
    7
 10
365.18839182208376
 20
283.53220431091574
 11
366.0799918220838
 21
284.31060431091583
  0
LINE
  8
_0-0_本体
  6
CONTINUOUS
 62
    7
 10
366.97179182208379
 20
283.53220431091574
 11
366.0799918220838
 21
279.47100431091582
  0
LINE
  8
_0-0_本体
  6
CONTINUOUS
 62
    7
 10
366.0799918220838
 20
279.47100431091582
 11
365.18839182208376
 21
278.69260431091573
  0
LINE
  8
_0-0_本体
  6
CONTINUOUS
 62
    7
 10
365.18839182208376
 20
278.69260431091573
 11
366.0799918220838
 21
284.31060431091583
  0
LINE
  8
_0-0_本体
  6
CONTINUOUS
 62
    7
 10
366.0799918220838
 20
284.31060431091583
 11
366.97179182208379
 21
283.53220431091574
  0
LINE
  8
_0-0_本体
  6
CONTINUOUS
 62
    7
 10
367.8634918220838
 20
284.31060431091583
 11
366.97179182208379
 21
278.69260431091573
  0
LINE
  8
_0-0_本体
  6
CONTINUOUS
 62
    7
 10
366.97179182208379
 20
278.69260431091573
 11
366.0799918220838
 21
279.47100431091582
  0
LINE
  8
_0-0_本体
  6
CONTINUOUS
 62
    7
 10
366.0799918220838
 20
279.47100431091582
 11
366.97179182208379
 21
283.53220431091574
  0
LINE
  8
_0-0_本体
  6
CONTINUOUS
 62
    7
 10
366.97179182208379
 20
283.53220431091574
 11
367.8634918220838
 21
284.31060431091583
  0
LINE
  8
_0-0_本体
  6
CONTINUOUS
 62
    7
 10
368.75519182208387
 20
283.53220431091574
 11
367.8634918220838
 21
279.47100431091582
  0
LINE
  8
_0-0_本体
  6
CONTINUOUS
 62
    7
 10
367.8634918220838
 20
279.47100431091582
 11
366.97179182208379
 21
278.69260431091573
  0
LINE
  8
_0-0_本体
  6
CONTINUOUS
 62
    7
 10
366.97179182208379
 20
278.69260431091573
 11
367.8634918220838
 21
284.31060431091583
  0
LINE
  8
_0-0_本体
  6
CONTINUOUS
 62
    7
 10
367.8634918220838
 20
284.31060431091583
 11
368.75519182208387
 21
283.53220431091574
  0
LINE
  8
_0-0_本体
  6
CONTINUOUS
 62
    7
 10
369.64699182208375
 20
284.31060431091583
 11
368.75519182208387
 21
278.69260431091573
  0
LINE
  8
_0-0_本体
  6
CONTINUOUS
 62
    7
 10
368.75519182208387
 20
278.69260431091573
 11
367.8634918220838
 21
279.47100431091582
  0
LINE
  8
_0-0_本体
  6
CONTINUOUS
 62
    7
 10
367.8634918220838
 20
279.47100431091582
 11
368.75519182208387
 21
283.53220431091574
  0
LINE
  8
_0-0_本体
  6
CONTINUOUS
 62
    7
 10
368.75519182208387
 20
283.53220431091574
 11
369.64699182208375
 21
284.31060431091583
  0
LINE
  8
_0-0_本体
  6
CONTINUOUS
 62
    7
 10
370.53869182208376
 20
283.53220431091574
 11
369.64699182208375
 21
279.47100431091582
  0
LINE
  8
_0-0_本体
  6
CONTINUOUS
 62
    7
 10
369.64699182208375
 20
279.47100431091582
 11
368.75519182208387
 21
278.69260431091573
  0
LINE
  8
_0-0_本体
  6
CONTINUOUS
 62
    7
 10
368.75519182208387
 20
278.69260431091573
 11
369.64699182208375
 21
284.31060431091583
  0
LINE
  8
_0-0_本体
  6
CONTINUOUS
 62
    7
 10
369.64699182208375
 20
284.31060431091583
 11
370.53869182208376
 21
283.53220431091574
  0
LINE
  8
_0-0_本体
  6
CONTINUOUS
 62
    7
 10
371.43039182208383
 20
284.31060431091583
 11
370.53869182208376
 21
278.69260431091573
  0
LINE
  8
_0-0_本体
  6
CONTINUOUS
 62
    7
 10
370.53869182208376
 20
278.69260431091573
 11
369.64699182208375
 21
279.47100431091582
  0
LINE
  8
_0-0_本体
  6
CONTINUOUS
 62
    7
 10
369.64699182208375
 20
279.47100431091582
 11
370.53869182208376
 21
283.53220431091574
  0
LINE
  8
_0-0_本体
  6
CONTINUOUS
 62
    7
 10
370.53869182208376
 20
283.53220431091574
 11
371.43039182208383
 21
284.31060431091583
  0
LINE
  8
_0-0_本体
  6
CONTINUOUS
 62
    7
 10
372.32219182208377
 20
283.53220431091574
 11
371.43039182208383
 21
279.47100431091582
  0
LINE
  8
_0-0_本体
  6
CONTINUOUS
 62
    7
 10
371.43039182208383
 20
279.47100431091582
 11
370.53869182208376
 21
278.69260431091573
  0
LINE
  8
_0-0_本体
  6
CONTINUOUS
 62
    7
 10
370.53869182208376
 20
278.69260431091573
 11
371.43039182208383
 21
284.31060431091583
  0
LINE
  8
_0-0_本体
  6
CONTINUOUS
 62
    7
 10
371.43039182208383
 20
284.31060431091583
 11
372.32219182208377
 21
283.53220431091574
  0
LINE
  8
_0-0_本体
  6
CONTINUOUS
 62
    7
 10
373.21379182208375
 20
284.31060431091583
 11
372.32219182208377
 21
278.69260431091573
  0
LINE
  8
_0-0_本体
  6
CONTINUOUS
 62
    7
 10
372.32219182208377
 20
278.69260431091573
 11
371.43039182208383
 21
279.47100431091582
  0
LINE
  8
_0-0_本体
  6
CONTINUOUS
 62
    7
 10
371.43039182208383
 20
279.47100431091582
 11
372.32219182208377
 21
283.53220431091574
  0
LINE
  8
_0-0_本体
  6
CONTINUOUS
 62
    7
 10
372.32219182208377
 20
283.53220431091574
 11
373.21379182208375
 21
284.31060431091583
  0
LINE
  8
_0-0_本体
  6
CONTINUOUS
 62
    7
 10
374.1055918220838
 20
283.53220431091574
 11
373.21379182208375
 21
279.47100431091582
  0
LINE
  8
_0-0_本体
  6
CONTINUOUS
 62
    7
 10
373.21379182208375
 20
279.47100431091582
 11
372.32219182208377
 21
278.69260431091573
  0
LINE
  8
_0-0_本体
  6
CONTINUOUS
 62
    7
 10
372.32219182208377
 20
278.69260431091573
 11
373.21379182208375
 21
284.31060431091583
  0
LINE
  8
_0-0_本体
  6
CONTINUOUS
 62
    7
 10
373.21379182208375
 20
284.31060431091583
 11
374.1055918220838
 21
283.53220431091574
  0
LINE
  8
_0-0_本体
  6
CONTINUOUS
 62
    7
 10
374.99729182208375
 20
284.31060431091583
 11
374.1055918220838
 21
278.69260431091573
  0
LINE
  8
_0-0_本体
  6
CONTINUOUS
 62
    7
 10
374.1055918220838
 20
278.69260431091573
 11
373.21379182208375
 21
279.47100431091582
  0
LINE
  8
_0-0_本体
  6
CONTINUOUS
 62
    7
 10
373.21379182208375
 20
279.47100431091582
 11
374.1055918220838
 21
283.53220431091574
  0
LINE
  8
_0-0_本体
  6
CONTINUOUS
 62
    7
 10
374.1055918220838
 20
283.53220431091574
 11
374.99729182208375
 21
284.31060431091583
  0
LINE
  8
_0-0_本体
  6
CONTINUOUS
 62
    7
 10
375.88899182208377
 20
283.53220431091574
 11
374.99729182208375
 21
279.47100431091582
  0
LINE
  8
_0-0_本体
  6
CONTINUOUS
 62
    7
 10
374.99729182208375
 20
279.47100431091582
 11
374.1055918220838
 21
278.69260431091573
  0
LINE
  8
_0-0_本体
  6
CONTINUOUS
 62
    7
 10
374.1055918220838
 20
278.69260431091573
 11
374.99729182208375
 21
284.31060431091583
  0
LINE
  8
_0-0_本体
  6
CONTINUOUS
 62
    7
 10
374.99729182208375
 20
284.31060431091583
 11
375.88899182208377
 21
283.53220431091574
  0
LINE
  8
_0-0_本体
  6
CONTINUOUS
 62
    7
 10
376.78079182208376
 20
284.31060431091583
 11
375.88899182208377
 21
278.69260431091573
  0
LINE
  8
_0-0_本体
  6
CONTINUOUS
 62
    7
 10
375.88899182208377
 20
278.69260431091573
 11
374.99729182208375
 21
279.47100431091582
  0
LINE
  8
_0-0_本体
  6
CONTINUOUS
 62
    7
 10
374.99729182208375
 20
279.47100431091582
 11
375.88899182208377
 21
283.53220431091574
  0
LINE
  8
_0-0_本体
  6
CONTINUOUS
 62
    7
 10
375.88899182208377
 20
283.53220431091574
 11
376.78079182208376
 21
284.31060431091583
  0
LINE
  8
_0-0_本体
  6
CONTINUOUS
 62
    7
 10
377.67249182208377
 20
283.53220431091574
 11
376.78079182208376
 21
279.47100431091582
  0
LINE
  8
_0-0_本体
  6
CONTINUOUS
 62
    7
 10
376.78079182208376
 20
279.47100431091582
 11
375.88899182208377
 21
278.69260431091573
  0
LINE
  8
_0-0_本体
  6
CONTINUOUS
 62
    7
 10
375.88899182208377
 20
278.69260431091573
 11
376.78079182208376
 21
284.31060431091583
  0
LINE
  8
_0-0_本体
  6
CONTINUOUS
 62
    7
 10
376.78079182208376
 20
284.31060431091583
 11
377.67249182208377
 21
283.53220431091574
  0
LINE
  8
_0-0_本体
  6
CONTINUOUS
 62
    7
 10
378.5641918220839
 20
284.31060431091583
 11
377.67249182208377
 21
278.69260431091573
  0
LINE
  8
_0-0_本体
  6
CONTINUOUS
 62
    7
 10
377.67249182208377
 20
278.69260431091573
 11
376.78079182208376
 21
279.47100431091582
  0
LINE
  8
_0-0_本体
  6
CONTINUOUS
 62
    7
 10
376.78079182208376
 20
279.47100431091582
 11
377.67249182208377
 21
283.53220431091574
  0
LINE
  8
_0-0_本体
  6
CONTINUOUS
 62
    7
 10
377.67249182208377
 20
283.53220431091574
 11
378.5641918220839
 21
284.31060431091583
  0
LINE
  8
_0-0_本体
  6
CONTINUOUS
 62
    7
 10
379.45599182208377
 20
283.53220431091574
 11
378.5641918220839
 21
279.47100431091582
  0
LINE
  8
_0-0_本体
  6
CONTINUOUS
 62
    7
 10
378.5641918220839
 20
279.47100431091582
 11
377.67249182208377
 21
278.69260431091573
  0
LINE
  8
_0-0_本体
  6
CONTINUOUS
 62
    7
 10
377.67249182208377
 20
278.69260431091573
 11
378.5641918220839
 21
284.31060431091583
  0
LINE
  8
_0-0_本体
  6
CONTINUOUS
 62
    7
 10
378.5641918220839
 20
284.31060431091583
 11
379.45599182208377
 21
283.53220431091574
  0
LINE
  8
_0-0_本体
  6
CONTINUOUS
 62
    7
 10
380.34759182208376
 20
284.31060431091583
 11
379.45599182208377
 21
278.69260431091573
  0
LINE
  8
_0-0_本体
  6
CONTINUOUS
 62
    7
 10
379.45599182208377
 20
278.69260431091573
 11
378.5641918220839
 21
279.47100431091582
  0
LINE
  8
_0-0_本体
  6
CONTINUOUS
 62
    7
 10
378.5641918220839
 20
279.47100431091582
 11
379.45599182208377
 21
283.53220431091574
  0
LINE
  8
_0-0_本体
  6
CONTINUOUS
 62
    7
 10
379.45599182208377
 20
283.53220431091574
 11
380.34759182208376
 21
284.31060431091583
  0
LINE
  8
_0-0_本体
  6
CONTINUOUS
 62
    7
 10
381.23929182208377
 20
283.53220431091574
 11
380.34759182208376
 21
279.47100431091582
  0
LINE
  8
_0-0_本体
  6
CONTINUOUS
 62
    7
 10
380.34759182208376
 20
279.47100431091582
 11
379.45599182208377
 21
278.69260431091573
  0
LINE
  8
_0-0_本体
  6
CONTINUOUS
 62
    7
 10
379.45599182208377
 20
278.69260431091573
 11
380.34759182208376
 21
284.31060431091583
  0
LINE
  8
_0-0_本体
  6
CONTINUOUS
 62
    7
 10
380.34759182208376
 20
284.31060431091583
 11
381.23929182208377
 21
283.53220431091574
  0
LINE
  8
_0-0_本体
  6
CONTINUOUS
 62
    7
 10
382.13109182208376
 20
284.31060431091583
 11
381.23929182208377
 21
278.69260431091573
  0
LINE
  8
_0-0_本体
  6
CONTINUOUS
 62
    7
 10
381.23929182208377
 20
278.69260431091573
 11
380.34759182208376
 21
279.47100431091582
  0
LINE
  8
_0-0_本体
  6
CONTINUOUS
 62
    7
 10
380.34759182208376
 20
279.47100431091582
 11
381.23929182208377
 21
283.53220431091574
  0
LINE
  8
_0-0_本体
  6
CONTINUOUS
 62
    7
 10
381.23929182208377
 20
283.53220431091574
 11
382.13109182208376
 21
284.31060431091583
  0
LINE
  8
_0-0_本体
  6
CONTINUOUS
 62
    7
 10
383.02279182208378
 20
283.53220431091574
 11
382.13109182208376
 21
279.47100431091582
  0
LINE
  8
_0-0_本体
  6
CONTINUOUS
 62
    7
 10
382.13109182208376
 20
279.47100431091582
 11
381.23929182208377
 21
278.69260431091573
  0
LINE
  8
_0-0_本体
  6
CONTINUOUS
 62
    7
 10
381.23929182208377
 20
278.69260431091573
 11
382.13109182208376
 21
284.31060431091583
  0
LINE
  8
_0-0_本体
  6
CONTINUOUS
 62
    7
 10
382.13109182208376
 20
284.31060431091583
 11
383.02279182208378
 21
283.53220431091574
  0
LINE
  8
_0-0_本体
  6
CONTINUOUS
 62
    7
 10
383.91449182208379
 20
284.31060431091583
 11
383.02279182208378
 21
278.69260431091573
  0
LINE
  8
_0-0_本体
  6
CONTINUOUS
 62
    7
 10
383.02279182208378
 20
278.69260431091573
 11
382.13109182208376
 21
279.47100431091582
  0
LINE
  8
_0-0_本体
  6
CONTINUOUS
 62
    7
 10
382.13109182208376
 20
279.47100431091582
 11
383.02279182208378
 21
283.53220431091574
  0
LINE
  8
_0-0_本体
  6
CONTINUOUS
 62
    7
 10
383.02279182208378
 20
283.53220431091574
 11
383.91449182208379
 21
284.31060431091583
  0
LINE
  8
_0-0_本体
  6
CONTINUOUS
 62
    7
 10
384.80629182208384
 20
283.53220431091574
 11
383.91449182208379
 21
279.47100431091582
  0
LINE
  8
_0-0_本体
  6
CONTINUOUS
 62
    7
 10
383.91449182208379
 20
279.47100431091582
 11
383.02279182208378
 21
278.69260431091573
  0
LINE
  8
_0-0_本体
  6
CONTINUOUS
 62
    7
 10
383.02279182208378
 20
278.69260431091573
 11
383.91449182208379
 21
284.31060431091583
  0
LINE
  8
_0-0_本体
  6
CONTINUOUS
 62
    7
 10
383.91449182208379
 20
284.31060431091583
 11
384.80629182208384
 21
283.53220431091574
  0
LINE
  8
_0-0_本体
  6
CONTINUOUS
 62
    7
 10
385.69799182208368
 20
284.31060431091583
 11
384.80629182208384
 21
278.69260431091573
  0
LINE
  8
_0-0_本体
  6
CONTINUOUS
 62
    7
 10
384.80629182208384
 20
278.69260431091573
 11
383.91449182208379
 21
279.47100431091582
  0
LINE
  8
_0-0_本体
  6
CONTINUOUS
 62
    7
 10
383.91449182208379
 20
279.47100431091582
 11
384.80629182208384
 21
283.53220431091574
  0
LINE
  8
_0-0_本体
  6
CONTINUOUS
 62
    7
 10
384.80629182208384
 20
283.53220431091574
 11
385.69799182208368
 21
284.31060431091583
  0
LINE
  8
_0-0_本体
  6
CONTINUOUS
 62
    7
 10
385.69799182208368
 20
284.31060431091583
 11
388.20309182208371
 21
284.31060431091583
  0
ARC
  8
_0-0_本体
  6
CONTINUOUS
 62
    7
 10
388.20309182208371
 20
284.48060431091585
 40
0.1700000000000514
 50
270.00000000001199
 51
359.99999999998801
  0
LINE
  8
_0-0_本体
  6
CONTINUOUS
 62
    7
 10
388.37309182208372
 20
278.5016043109157
 11
388.37309182208372
 21
284.5016043109157
  0
ARC
  8
_0-0_本体
  6
CONTINUOUS
 62
    7
 10
388.20309182208382
 20
278.52260431091577
 40
0.1699999999999768
 50
359.99999999999403
 51
90.000000000013173
  0
LINE
  8
_0-0_本体
  6
CONTINUOUS
 62
    7
 10
388.20309182208371
 20
278.69260431091573
 11
386.58969182208369
 21
278.69260431091573
  0
LINE
  8
_0-0_本体
  6
CONTINUOUS
 62
    7
 10
386.58969182208369
 20
278.69260431091573
 11
385.69799182208368
 21
279.47100431091582
  0
LINE
  8
_0-0_本体
  6
CONTINUOUS
 62
    7
 10
385.69799182208368
 20
279.47100431091582
 11
384.80629182208384
 21
278.69260431091573
  0
LINE
  8
_0-0_本体
  6
CONTINUOUS
 62
    7
 10
384.80629182208384
 20
278.69260431091573
 11
385.69799182208368
 21
284.31060431091583
  0
LINE
  8
_0-0_本体
  6
CONTINUOUS
 62
    7
 10
388.37309182208372
 20
278.69260431091573
 11
392.60509182208369
 21
273.63040431091582
  0
LINE
  8
_0-0_本体
  6
CONTINUOUS
 62
    7
 10
388.37309182208372
 20
284.31060431091583
 11
392.60509182208369
 21
289.37280431091574
  0
LINE
  8
_0-0_本体
  6
CONTINUOUS
 62
    7
 10
392.60509182208369
 20
289.37280431091574
 11
392.60509182208369
 21
273.63040431091582
  0
LINE
  8
_0-0_本体
  6
CONTINUOUS
 62
    7
 10
350.92069182208388
 20
283.53220431091574
 11
351.81249182208376
 21
284.31060431091583
  0
LINE
  8
_0-0_本体
  6
CONTINUOUS
 62
    7
 10
350.02899182208375
 20
279.47100431091582
 11
350.92069182208388
 21
283.53220431091574
  0
LINE
  8
_0-0_本体
  6
CONTINUOUS
 62
    7
 10
350.92069182208388
 20
278.69260431091573
 11
350.02899182208375
 21
279.47100431091582
  0
LINE
  8
_0-0_本体
  6
CONTINUOUS
 62
    7
 10
351.81249182208376
 20
284.31060431091583
 11
350.92069182208388
 21
278.69260431091573
  0
LINE
  8
_0-0_本体
  6
CONTINUOUS
 62
    7
 10
350.02899182208375
 20
284.31060431091583
 11
350.92069182208388
 21
283.53220431091574
  0
LINE
  8
_0-0_本体
  6
CONTINUOUS
 62
    7
 10
349.13729182208374
 20
278.69260431091573
 11
350.02899182208375
 21
284.31060431091583
  0
LINE
  8
_0-0_本体
  6
CONTINUOUS
 62
    7
 10
350.02899182208375
 20
279.47100431091582
 11
349.13729182208374
 21
278.69260431091573
  0
LINE
  8
_0-0_本体
  6
CONTINUOUS
 62
    7
 10
350.92069182208388
 20
283.53220431091574
 11
350.02899182208375
 21
279.47100431091582
  0
LINE
  8
_0-0_本体
  6
CONTINUOUS
 62
    7
 10
349.13719182208388
 20
283.53220431091574
 11
350.02899182208375
 21
284.31060431091583
  0
LINE
  8
_0-0_本体
  6
CONTINUOUS
 62
    7
 10
348.24549182208375
 20
279.47100431091582
 11
349.13719182208388
 21
283.53220431091574
  0
LINE
  8
_0-0_本体
  6
CONTINUOUS
 62
    7
 10
349.13719182208388
 20
278.69260431091573
 11
348.24549182208375
 21
279.47100431091582
  0
LINE
  8
_0-0_本体
  6
CONTINUOUS
 62
    7
 10
350.02899182208375
 20
284.31060431091583
 11
349.13719182208388
 21
278.69260431091573
  0
LINE
  8
_0-0_本体
  6
CONTINUOUS
 62
    7
 10
348.24549182208375
 20
284.31060431091583
 11
349.13719182208388
 21
283.53220431091574
  0
LINE
  8
_0-0_本体
  6
CONTINUOUS
 62
    7
 10
347.35379182208374
 20
278.69260431091573
 11
348.24549182208375
 21
284.31060431091583
  0
LINE
  8
_0-0_本体
  6
CONTINUOUS
 62
    7
 10
348.24549182208375
 20
279.47100431091582
 11
347.35379182208374
 21
278.69260431091573
  0
LINE
  8
_0-0_本体
  6
CONTINUOUS
 62
    7
 10
349.13719182208388
 20
283.53220431091574
 11
348.24549182208375
 21
279.47100431091582
  0
LINE
  8
_0-0_本体
  6
CONTINUOUS
 62
    7
 10
336.65299182208389
 20
283.53220431091574
 11
335.76129182208371
 21
279.47100431091582
  0
LINE
  8
_0-0_本体
  6
CONTINUOUS
 62
    7
 10
335.76129182208371
 20
279.47100431091582
 11
334.86959182208369
 21
278.69260431091573
  0
LINE
  8
_0-0_本体
  6
CONTINUOUS
 62
    7
 10
334.86959182208369
 20
278.69260431091573
 11
335.76129182208371
 21
284.31060431091583
  0
LINE
  8
_0-0_本体
  6
CONTINUOUS
 62
    7
 10
335.76129182208371
 20
284.31060431091583
 11
336.65299182208389
 21
283.53220431091574
  0
LINE
  8
_0-0_本体
  6
CONTINUOUS
 62
    7
 10
337.54479182208371
 20
284.31060431091583
 11
336.65299182208389
 21
278.69260431091573
  0
LINE
  8
_0-0_本体
  6
CONTINUOUS
 62
    7
 10
336.65299182208389
 20
278.69260431091573
 11
335.76129182208371
 21
279.47100431091582
  0
LINE
  8
_0-0_本体
  6
CONTINUOUS
 62
    7
 10
335.76129182208371
 20
279.47100431091582
 11
336.65299182208389
 21
283.53220431091574
  0
LINE
  8
_0-0_本体
  6
CONTINUOUS
 62
    7
 10
336.65299182208389
 20
283.53220431091574
 11
337.54479182208371
 21
284.31060431091583
  0
LINE
  8
_0-0_本体
  6
CONTINUOUS
 62
    7
 10
338.43649182208372
 20
283.53220431091574
 11
337.54479182208371
 21
279.47100431091582
  0
LINE
  8
_0-0_本体
  6
CONTINUOUS
 62
    7
 10
337.54479182208371
 20
279.47100431091582
 11
336.65299182208389
 21
278.69260431091573
  0
LINE
  8
_0-0_本体
  6
CONTINUOUS
 62
    7
 10
336.65299182208389
 20
278.69260431091573
 11
337.54479182208371
 21
284.31060431091583
  0
LINE
  8
_0-0_本体
  6
CONTINUOUS
 62
    7
 10
337.54479182208371
 20
284.31060431091583
 11
338.43649182208372
 21
283.53220431091574
  0
LINE
  8
_0-0_本体
  6
CONTINUOUS
 62
    7
 10
339.3281918220838
 20
284.31060431091583
 11
338.43649182208372
 21
278.69260431091573
  0
LINE
  8
_0-0_本体
  6
CONTINUOUS
 62
    7
 10
338.43649182208372
 20
278.69260431091573
 11
337.54479182208371
 21
279.47100431091582
  0
LINE
  8
_0-0_本体
  6
CONTINUOUS
 62
    7
 10
337.54479182208371
 20
279.47100431091582
 11
338.43649182208372
 21
283.53220431091574
  0
LINE
  8
_0-0_本体
  6
CONTINUOUS
 62
    7
 10
338.43649182208372
 20
283.53220431091574
 11
339.3281918220838
 21
284.31060431091583
  0
LINE
  8
_0-0_本体
  6
CONTINUOUS
 62
    7
 10
340.21999182208384
 20
283.53220431091574
 11
339.3281918220838
 21
279.47100431091582
  0
LINE
  8
_0-0_本体
  6
CONTINUOUS
 62
    7
 10
339.3281918220838
 20
279.47100431091582
 11
338.43649182208372
 21
278.69260431091573
  0
LINE
  8
_0-0_本体
  6
CONTINUOUS
 62
    7
 10
338.43649182208372
 20
278.69260431091573
 11
339.3281918220838
 21
284.31060431091583
  0
LINE
  8
_0-0_本体
  6
CONTINUOUS
 62
    7
 10
339.3281918220838
 20
284.31060431091583
 11
340.21999182208384
 21
283.53220431091574
  0
LINE
  8
_0-0_本体
  6
CONTINUOUS
 62
    7
 10
341.1116918220838
 20
284.31060431091583
 11
340.21999182208384
 21
278.69260431091573
  0
LINE
  8
_0-0_本体
  6
CONTINUOUS
 62
    7
 10
340.21999182208384
 20
278.69260431091573
 11
339.3281918220838
 21
279.47100431091582
  0
LINE
  8
_0-0_本体
  6
CONTINUOUS
 62
    7
 10
339.3281918220838
 20
279.47100431091582
 11
340.21999182208384
 21
283.53220431091574
  0
LINE
  8
_0-0_本体
  6
CONTINUOUS
 62
    7
 10
340.21999182208384
 20
283.53220431091574
 11
341.1116918220838
 21
284.31060431091583
  0
LINE
  8
_0-0_本体
  6
CONTINUOUS
 62
    7
 10
342.00329182208384
 20
283.53220431091574
 11
341.1116918220838
 21
279.47100431091582
  0
LINE
  8
_0-0_本体
  6
CONTINUOUS
 62
    7
 10
341.1116918220838
 20
279.47100431091582
 11
340.21999182208384
 21
278.69260431091573
  0
LINE
  8
_0-0_本体
  6
CONTINUOUS
 62
    7
 10
340.21999182208384
 20
278.69260431091573
 11
341.1116918220838
 21
284.31060431091583
  0
LINE
  8
_0-0_本体
  6
CONTINUOUS
 62
    7
 10
341.1116918220838
 20
284.31060431091583
 11
342.00329182208384
 21
283.53220431091574
  0
LINE
  8
_0-0_本体
  6
CONTINUOUS
 62
    7
 10
342.89509182208366
 20
284.31060431091583
 11
342.00329182208384
 21
278.69260431091573
  0
LINE
  8
_0-0_本体
  6
CONTINUOUS
 62
    7
 10
342.00329182208384
 20
278.69260431091573
 11
341.1116918220838
 21
279.47100431091582
  0
LINE
  8
_0-0_本体
  6
CONTINUOUS
 62
    7
 10
341.1116918220838
 20
279.47100431091582
 11
342.00329182208384
 21
283.53220431091574
  0
LINE
  8
_0-0_本体
  6
CONTINUOUS
 62
    7
 10
342.00329182208384
 20
283.53220431091574
 11
342.89509182208366
 21
284.31060431091583
  0
LINE
  8
_0-0_本体
  6
CONTINUOUS
 62
    7
 10
343.78679182208367
 20
283.53220431091574
 11
342.89509182208366
 21
279.47100431091582
  0
LINE
  8
_0-0_本体
  6
CONTINUOUS
 62
    7
 10
342.89509182208366
 20
279.47100431091582
 11
342.00329182208384
 21
278.69260431091573
  0
LINE
  8
_0-0_本体
  6
CONTINUOUS
 62
    7
 10
342.00329182208384
 20
278.69260431091573
 11
342.89509182208366
 21
284.31060431091583
  0
LINE
  8
_0-0_本体
  6
CONTINUOUS
 62
    7
 10
342.89509182208366
 20
284.31060431091583
 11
343.78679182208367
 21
283.53220431091574
  0
LINE
  8
_0-0_本体
  6
CONTINUOUS
 62
    7
 10
344.67849182208369
 20
284.31060431091583
 11
343.78679182208367
 21
278.69260431091573
  0
LINE
  8
_0-0_本体
  6
CONTINUOUS
 62
    7
 10
343.78679182208367
 20
278.69260431091573
 11
342.89509182208366
 21
279.47100431091582
  0
LINE
  8
_0-0_本体
  6
CONTINUOUS
 62
    7
 10
342.89509182208366
 20
279.47100431091582
 11
343.78679182208367
 21
283.53220431091574
  0
LINE
  8
_0-0_本体
  6
CONTINUOUS
 62
    7
 10
343.78679182208367
 20
283.53220431091574
 11
344.67849182208369
 21
284.31060431091583
  0
LINE
  8
_0-0_本体
  6
CONTINUOUS
 62
    7
 10
345.57029182208379
 20
283.53220431091574
 11
344.67849182208369
 21
279.47100431091582
  0
LINE
  8
_0-0_本体
  6
CONTINUOUS
 62
    7
 10
344.67849182208369
 20
279.47100431091582
 11
343.78679182208367
 21
278.69260431091573
  0
LINE
  8
_0-0_本体
  6
CONTINUOUS
 62
    7
 10
343.78679182208367
 20
278.69260431091573
 11
344.67849182208369
 21
284.31060431091583
  0
LINE
  8
_0-0_本体
  6
CONTINUOUS
 62
    7
 10
344.67849182208369
 20
284.31060431091583
 11
345.57029182208379
 21
283.53220431091574
  0
LINE
  8
_0-0_本体
  6
CONTINUOUS
 62
    7
 10
346.46199182208375
 20
284.31060431091583
 11
345.57029182208379
 21
278.69260431091573
  0
LINE
  8
_0-0_本体
  6
CONTINUOUS
 62
    7
 10
345.57029182208379
 20
278.69260431091573
 11
344.67849182208369
 21
279.47100431091582
  0
LINE
  8
_0-0_本体
  6
CONTINUOUS
 62
    7
 10
344.67849182208369
 20
279.47100431091582
 11
345.57029182208379
 21
283.53220431091574
  0
LINE
  8
_0-0_本体
  6
CONTINUOUS
 62
    7
 10
345.57029182208379
 20
283.53220431091574
 11
346.46199182208375
 21
284.31060431091583
  0
LINE
  8
_0-0_本体
  6
CONTINUOUS
 62
    7
 10
347.3536918220837
 20
283.53220431091574
 11
346.46199182208375
 21
279.47100431091582
  0
LINE
  8
_0-0_本体
  6
CONTINUOUS
 62
    7
 10
346.46199182208375
 20
279.47100431091582
 11
345.57029182208379
 21
278.69260431091573
  0
LINE
  8
_0-0_本体
  6
CONTINUOUS
 62
    7
 10
345.57029182208379
 20
278.69260431091573
 11
346.46199182208375
 21
284.31060431091583
  0
LINE
  8
_0-0_本体
  6
CONTINUOUS
 62
    7
 10
346.46199182208375
 20
284.31060431091583
 11
347.3536918220837
 21
283.53220431091574
  0
LINE
  8
_0-0_本体
  6
CONTINUOUS
 62
    7
 10
334.86949182208389
 20
283.53220431091574
 11
335.76129182208371
 21
284.31060431091583
  0
LINE
  8
_0-0_本体
  6
CONTINUOUS
 62
    7
 10
333.97779182208376
 20
279.47100431091582
 11
334.86949182208389
 21
283.53220431091574
  0
LINE
  8
_0-0_本体
  6
CONTINUOUS
 62
    7
 10
334.86949182208389
 20
278.69260431091573
 11
333.97779182208376
 21
279.47100431091582
  0
LINE
  8
_0-0_本体
  6
CONTINUOUS
 62
    7
 10
335.76129182208371
 20
284.31060431091583
 11
334.86949182208389
 21
278.69260431091573
  0
LINE
  8
_0-0_本体
  6
CONTINUOUS
 62
    7
 10
333.97779182208376
 20
284.31060431091583
 11
334.86949182208389
 21
283.53220431091574
  0
LINE
  8
_0-0_本体
  6
CONTINUOUS
 62
    7
 10
333.08609182208374
 20
278.69260431091573
 11
333.97779182208376
 21
284.31060431091583
  0
LINE
  8
_0-0_本体
  6
CONTINUOUS
 62
    7
 10
333.97779182208376
 20
279.47100431091582
 11
333.08609182208374
 21
278.69260431091573
  0
LINE
  8
_0-0_本体
  6
CONTINUOUS
 62
    7
 10
334.86949182208389
 20
283.53220431091574
 11
333.97779182208376
 21
279.47100431091582
  0
LINE
  8
_0-0_本体
  6
CONTINUOUS
 62
    7
 10
333.08599182208388
 20
283.53220431091574
 11
333.97779182208376
 21
284.31060431091583
  0
LINE
  8
_0-0_本体
  6
CONTINUOUS
 62
    7
 10
332.19429182208376
 20
279.47100431091582
 11
333.08599182208388
 21
283.53220431091574
  0
LINE
  8
_0-0_本体
  6
CONTINUOUS
 62
    7
 10
333.08599182208388
 20
278.69260431091573
 11
332.19429182208376
 21
279.47100431091582
  0
LINE
  8
_0-0_本体
  6
CONTINUOUS
 62
    7
 10
333.97779182208376
 20
284.31060431091583
 11
333.08599182208388
 21
278.69260431091573
  0
LINE
  8
_0-0_本体
  6
CONTINUOUS
 62
    7
 10
332.19429182208376
 20
284.31060431091583
 11
333.08599182208388
 21
283.53220431091574
  0
LINE
  8
_0-0_本体
  6
CONTINUOUS
 62
    7
 10
331.30259182208374
 20
278.69260431091573
 11
332.19429182208376
 21
284.31060431091583
  0
LINE
  8
_0-0_本体
  6
CONTINUOUS
 62
    7
 10
332.19429182208376
 20
279.47100431091582
 11
331.30259182208374
 21
278.69260431091573
  0
LINE
  8
_0-0_本体
  6
CONTINUOUS
 62
    7
 10
333.08599182208388
 20
283.53220431091574
 11
332.19429182208376
 21
279.47100431091582
  0
LINE
  8
_0-0_本体
  6
CONTINUOUS
 62
    7
 10
348.24549182208375
 20
284.31060431091583
 11
347.3536918220837
 21
278.69260431091573
  0
LINE
  8
_0-0_本体
  6
CONTINUOUS
 62
    7
 10
347.3536918220837
 20
278.69260431091573
 11
346.46199182208375
 21
279.47100431091582
  0
LINE
  8
_0-0_本体
  6
CONTINUOUS
 62
    7
 10
346.46199182208375
 20
279.47100431091582
 11
347.3536918220837
 21
283.53220431091574
  0
LINE
  8
_0-0_本体
  6
CONTINUOUS
 62
    7
 10
347.3536918220837
 20
283.53220431091574
 11
348.24549182208375
 21
284.31060431091583
  0
LINE
  8
_0-0_本体
  6
CONTINUOUS
 62
    7
 10
331.30249182208388
 20
283.53220431091574
 11
332.19429182208376
 21
284.31060431091583
  0
LINE
  8
_0-0_本体
  6
CONTINUOUS
 62
    7
 10
330.41079182208375
 20
279.47100431091582
 11
331.30249182208388
 21
283.53220431091574
  0
LINE
  8
_0-0_本体
  6
CONTINUOUS
 62
    7
 10
331.30249182208388
 20
278.69260431091573
 11
330.41079182208375
 21
279.47100431091582
  0
LINE
  8
_0-0_本体
  6
CONTINUOUS
 62
    7
 10
332.19429182208376
 20
284.31060431091583
 11
331.30249182208388
 21
278.69260431091573
  0
LINE
  8
_0-0_本体
  6
CONTINUOUS
 62
    7
 10
330.41079182208375
 20
284.31060431091583
 11
331.30249182208388
 21
283.53220431091574
  0
LINE
  8
_0-0_本体
  6
CONTINUOUS
 62
    7
 10
329.51909182208374
 20
278.69260431091573
 11
330.41079182208375
 21
284.31060431091583
  0
LINE
  8
_0-0_本体
  6
CONTINUOUS
 62
    7
 10
330.41079182208375
 20
279.47100431091582
 11
329.51909182208374
 21
278.69260431091573
  0
LINE
  8
_0-0_本体
  6
CONTINUOUS
 62
    7
 10
331.30249182208388
 20
283.53220431091574
 11
330.41079182208375
 21
279.47100431091582
  0
LINE
  8
_0-0_本体
  6
CONTINUOUS
 62
    7
 10
329.51899182208388
 20
283.53220431091574
 11
330.41079182208375
 21
284.31060431091583
  0
LINE
  8
_0-0_本体
  6
CONTINUOUS
 62
    7
 10
328.62729182208375
 20
279.47100431091582
 11
329.51899182208388
 21
283.53220431091574
  0
LINE
  8
_0-0_本体
  6
CONTINUOUS
 62
    7
 10
329.51899182208388
 20
278.69260431091573
 11
328.62729182208375
 21
279.47100431091582
  0
LINE
  8
_0-0_本体
  6
CONTINUOUS
 62
    7
 10
330.41079182208375
 20
284.31060431091583
 11
329.51899182208388
 21
278.69260431091573
  0
LINE
  8
_0-0_本体
  6
CONTINUOUS
 62
    7
 10
328.62729182208375
 20
284.31060431091583
 11
329.51899182208388
 21
283.53220431091574
  0
LINE
  8
_0-0_本体
  6
CONTINUOUS
 62
    7
 10
327.73559182208373
 20
278.69260431091573
 11
328.62729182208375
 21
284.31060431091583
  0
LINE
  8
_0-0_本体
  6
CONTINUOUS
 62
    7
 10
328.62729182208375
 20
279.47100431091582
 11
327.73559182208373
 21
278.69260431091573
  0
LINE
  8
_0-0_本体
  6
CONTINUOUS
 62
    7
 10
329.51899182208388
 20
283.53220431091574
 11
328.62729182208375
 21
279.47100431091582
  0
LINE
  8
_0-0_本体
  6
CONTINUOUS
 62
    7
 10
326.84379182208374
 20
284.31060431091583
 11
327.73549182208393
 21
283.53220431091574
  0
LINE
  8
_0-0_本体
  6
CONTINUOUS
 62
    7
 10
325.95209182208373
 20
278.69260431091573
 11
326.84379182208374
 21
284.31060431091583
  0
LINE
  8
_0-0_本体
  6
CONTINUOUS
 62
    7
 10
326.84379182208374
 20
279.47100431091582
 11
325.95209182208373
 21
278.69260431091573
  0
LINE
  8
_0-0_本体
  6
CONTINUOUS
 62
    7
 10
327.73549182208393
 20
283.53220431091574
 11
326.84379182208374
 21
279.47100431091582
  0
LINE
  8
_0-0_本体
  6
CONTINUOUS
 62
    7
 10
327.73549182208393
 20
283.53220431091574
 11
328.62729182208375
 21
284.31060431091583
  0
LINE
  8
_0-0_本体
  6
CONTINUOUS
 62
    7
 10
326.84379182208374
 20
279.47100431091582
 11
327.73549182208393
 21
283.53220431091574
  0
LINE
  8
_0-0_本体
  6
CONTINUOUS
 62
    7
 10
327.73549182208393
 20
278.69260431091573
 11
326.84379182208374
 21
279.47100431091582
  0
LINE
  8
_0-0_本体
  6
CONTINUOUS
 62
    7
 10
328.62729182208375
 20
284.31060431091583
 11
327.73549182208393
 21
278.69260431091573
  0
LINE
  8
_0-0_本体
  6
CONTINUOUS
 62
    7
 10
325.74689182208374
 20
283.71140431091573
 11
325.95209182208373
 21
283.53220431091574
  0
LINE
  8
_0-0_本体
  6
CONTINUOUS
 62
    7
 10
326.84379182208374
 20
284.31060431091583
 11
325.95209182208373
 21
278.69260431091573
  0
LINE
  8
_0-0_本体
  6
CONTINUOUS
 62
    7
 10
325.95209182208373
 20
278.69260431091573
 11
325.06039182208394
 21
279.47100431091582
  0
LINE
  8
_0-0_本体
  6
CONTINUOUS
 62
    7
 10
325.06039182208394
 20
279.47100431091582
 11
325.95209182208373
 21
283.53220431091574
  0
LINE
  8
_0-0_本体
  6
CONTINUOUS
 62
    7
 10
325.95209182208373
 20
283.53220431091574
 11
326.84379182208374
 21
284.31060431091583
  0
LINE
  8
_0-0_本体
  6
CONTINUOUS
 62
    7
 10
325.74689182208374
 20
283.71140431091573
 11
317.60509182208369
 21
281.34360430203105
  0
LINE
  8
_0-0_本体
  6
CONTINUOUS
 62
    7
 10
317.60509182208369
 20
281.34360430203105
 11
325.07907760806432
 21
279.55610772464661
  0
LINE
  8
_0-0_本体
  6
CONTINUOUS
 62
    7
 10
318.37407617700427
 20
281.159692137646
 11
318.44189809535925
 21
281.58696448052922
  0
LINE
  8
_0-0_本体
  6
CONTINUOUS
 62
    7
 10
324.3340774490577
 20
279.7342837705354
 11
324.92755208984147
 21
283.47312375559841
  0
LINE
  8
_0-0_本体
  6
CONTINUOUS
 62
    7
 10
323.58907729005102
 20
279.91245981642419
 11
324.11684534053114
 21
283.23735384621472
  0
LINE
  8
_0-0_本体
  6
CONTINUOUS
 62
    7
 10
322.84407713104429
 20
280.09063586231309
 11
323.30613859122082
 21
283.00158393683114
  0
LINE
  8
_0-0_本体
  6
CONTINUOUS
 62
    7
 10
322.09907697203766
 20
280.26881190820188
 11
322.49543184191066
 21
282.76581402744739
  0
LINE
  8
_0-0_本体
  6
CONTINUOUS
 62
    7
 10
321.35407681303099
 20
280.44698795409073
 11
321.68472509260033
 21
282.53004411806381
  0
LINE
  8
_0-0_本体
  6
CONTINUOUS
 62
    7
 10
320.60907665402431
 20
280.62516399997952
 11
320.87401834329
 21
282.29427420868012
  0
LINE
  8
_0-0_本体
  6
CONTINUOUS
 62
    7
 10
319.86407649501757
 20
280.80334004586837
 11
320.06331159397973
 21
282.05850429929649
  0
LINE
  8
_0-0_本体
  6
CONTINUOUS
 62
    7
 10
319.11907633601095
 20
280.98151609175721
 11
319.25260484466946
 21
281.82273438991291
  0
LINE
  8
_0-0_本体
  6
DASHED1
 62
    7
 10
392.60509182208369
 20
273.63040431091582
 11
405.60509182208375
 21
273.63040431091582
  0
LINE
  8
_0-0_本体
  6
DASHED1
 62
    7
 10
392.60509182208369
 20
289.37280431091574
 11
405.60509182208375
 21
289.37280431091574
  0
LINE
  8
_0-0_本体
  6
CONTINUOUS
 62
    7
 10
405.60509182208375
 20
273.63040431091582
 11
411.60509182208375
 21
273.63040431091582
  0
LINE
  8
_0-0_本体
  6
CONTINUOUS
 62
    7
 10
405.60509182208375
 20
273.63040431091582
 11
405.60509182208375
 21
289.37280431091574
  0
LINE
  8
_0-0_本体
  6
CONTINUOUS
 62
    7
 10
411.60509182208375
 20
289.37280431091574
 11
405.60509182208375
 21
289.37280431091574
  0
LINE
  8
_0-0_本体
  6
CONTINUOUS
 62
    7
 10
412.60509182208375
 20
271.63040431091588
 11
412.60509182208375
 21
291.37280431091574
  0
LINE
  8
_0-0_本体
  6
CONTINUOUS
 62
    7
 10
411.60509182208375
 20
271.63040431091588
 11
412.60509182208375
 21
271.63040431091588
  0
LINE
  8
_0-0_本体
  6
CONTINUOUS
 62
    7
 10
411.60509182208375
 20
291.37280431091574
 11
412.60509182208375
 21
291.37280431091574
  0
LINE
  8
_0-0_本体
  6
CENTER2
 62
   18
 10
416.60509182208364
 20
281.34360430203105
 11
312.60509182208369
 21
281.34360430203105
  0
LINE
  8
_0-1_躯体
  6
CONTINUOUS
 62
    7
 10
367.60509182208364
 20
301.34360430203105
 11
357.60509182208375
 21
301.34360430203105
  0
SOLID
  8
_0-f_
  6
CONTINUOUS
 62
    7
 10
357.97806347758313
 20
273.8393856923168
 11
355.26000196322912
 21
264.36037870791051
 12
350.88464966490062
 22
266.9893555983478
 13
350.88464966490062
 23
266.9893555983478
  0
LINE
  8
_0-1_躯体
  6
CONTINUOUS
 62
    7
 10
367.60509182208364
 20
301.34360430203105
 11
357.60509182208375
 21
261.34360430203105
  0
LINE
  8
_f-0_
  6
CONTINUOUS
 62
    7
 10
1015.5000201044859
 20
105.00000309299786
 11
1015.5000201044859
 21
45.000000000000085
  0
LINE
  8
_f-0_
  6
CONTINUOUS
 62
    7
 10
1104.0000151556892
 20
105.00000309299786
 11
1104.0000151556892
 21
45.000000000000085
  0
LINE
  8
_0-1_躯体
  6
CONTINUOUS
 62
    7
 10
357.60509182208375
 20
343.34360430203105
 11
357.60509182208375
 21
238.34360430203105
  0
LINE
  8
_f-0_
  6
CONTINUOUS
 62
   18
 10
85.500000000000256
 20
45.000000000000085
 11
85.500000000000256
 21
845.99998886520814
  0
LINE
  8
_f-0_
  6
CONTINUOUS
 62
   18
 10
85.500000000000256
 20
845.99998886520814
 11
1174.5000250532826
 21
845.99998886520814
  0
LINE
  8
_f-0_
  6
CONTINUOUS
 62
   18
 10
1174.5000250532826
 20
45.000000000000085
 11
85.500000000000256
 21
45.000000000000085
  0
LINE
  8
_f-0_
  6
CONTINUOUS
 62
   18
 10
85.500000000000256
 20
105.00000309299786
 11
1174.5000250532826
 21
105.00000309299786
  0
LINE
  8
_f-0_
  6
CONTINUOUS
 62
   18
 10
1174.5000250532826
 20
845.99998886520814
 11
1174.5000250532826
 21
45.000000000000085
  0
LINE
  8
_f-0_
  6
CONTINUOUS
 62
    7
 10
763.50000525809651
 20
105.00000309299786
 11
763.50000525809651
 21
45.000000000000085
  0
LINE
  8
_f-0_
  6
CONTINUOUS
 62
    7
 10
589.4999879373089
 20
105.00000309299786
 11
589.4999879373089
 21
45.000000000000085
  0
LINE
  8
_f-0_
  6
DASHED1
 62
   18
 10
111.00000061859978
 20
70.799999752560282
 11
582.00000030930005
 21
70.799999752560282
  0
LINE
  8
_f-0_
  6
DASHED1
 62
   18
 10
607.50001020689297
 20
85.499994432604112
 11
754.49997556531775
 21
85.499994432604112
  0
LINE
  8
_f-0_
  6
DASHED1
 62
   18
 10
1006.4999904117071
 20
85.499994432604112
 11
776.99997556531775
 21
85.499994432604112
  0
LINE
  8
_f-0_
  6
DASHED1
 62
   18
 10
1093.979221962594
 20
85.774494892842156
 11
1025.2500151556892
 21
85.774494892842156
  0
LINE
  8
_f-0_
  6
DASHED1
 62
   18
 10
1114.020734116838
 20
85.774494892842156
 11
1162.4999854629104
 21
85.499994432604112
  0
TEXT
  8
_f-0_
 62
    7
 10
608.77498595779036
 20
86.974500707677976
 40
12
 41
1
 50
0
  1
項目
  0
TEXT
  8
_f-0_
 62
    7
 10
776.40000822737431
 20
86.974500707677976
 40
12
 41
1
 50
0
  1
図面名称
  0
TEXT
  8
_f-0_
 62
    7
 10
1115.8353736465046
 20
85.774494892842156
 40
12
 41
1
 50
0
  1
NO
  0
TEXT
  8
_f-0_
 62
    7
 10
814.50003000207869
 20
57.737246332941879
 40
12
 41
1
 50
0
  1
平断面・立断面
  0
LINE
  8
_f-0_
  6
CONTINUOUS
 62
    7
 10
135.30000006186017
 20
74.399998639081062
 11
173.99999969070049
 21
74.399998639081062
  0
LINE
  8
_f-0_
  6
CONTINUOUS
 62
    7
 10
138.30000068045979
 20
77.399999257680633
 11
170.99999907210096
 21
77.399999257680633
  0
LINE
  8
_f-0_
  6
CONTINUOUS
 62
    7
 10
135.30000006186017
 20
90.299999133960711
 11
135.30000006186017
 21
74.399998639081062
  0
LINE
  8
_f-0_
  6
CONTINUOUS
 62
    7
 10
138.30000068045979
 20
87.299998515361139
 11
138.30000068045979
 21
77.399999257680633
  0
LINE
  8
_f-0_
  6
CONTINUOUS
 62
    7
 10
173.99999969070049
 20
87.299998515361139
 11
138.30000068045979
 21
87.299998515361139
  0
LINE
  8
_f-0_
  6
CONTINUOUS
 62
    7
 10
173.99999969070049
 20
90.299999133960711
 11
135.30000006186017
 21
90.299999133960711
  0
LINE
  8
_f-0_
  6
CONTINUOUS
 62
    7
 10
149.39999647398275
 20
80.850003216717781
 11
149.39999647398275
 21
83.849994556323992
  0
LINE
  8
_f-0_
  6
CONTINUOUS
 62
    7
 10
149.39999647398275
 20
83.849994556323992
 11
173.99999969070049
 21
83.849994556323992
  0
LINE
  8
_f-0_
  6
CONTINUOUS
 62
    7
 10
149.39999647398275
 20
80.850003216717781
 11
170.99999907210096
 21
80.850003216717781
  0
LINE
  8
_f-0_
  6
CONTINUOUS
 62
    7
 10
170.99999907210096
 20
77.399999257680633
 11
170.99999907210096
 21
80.850003216717781
  0
LINE
  8
_f-0_
  6
CONTINUOUS
 62
    7
 10
173.99999969070049
 20
74.399998639081062
 11
173.99999969070049
 21
83.849994556323992
  0
LINE
  8
_f-0_
  6
CONTINUOUS
 62
    7
 10
173.99999969070049
 20
90.299999133960711
 11
173.99999969070049
 21
87.299998515361139
  0
LINE
  8
_f-0_
  6
CONTINUOUS
 62
    7
 10
137.87142916351695
 20
87.728570032303935
 11
173.99999969070049
 21
87.728570032303935
  0
LINE
  8
_f-0_
  6
CONTINUOUS
 62
    7
 10
137.44285764657411
 20
88.157141549246731
 11
173.99999969070049
 21
88.157141549246731
  0
LINE
  8
_f-0_
  6
CONTINUOUS
 62
    7
 10
137.01428612963127
 20
88.585713066189527
 11
173.99999969070049
 21
88.585713066189527
  0
LINE
  8
_f-0_
  6
CONTINUOUS
 62
    7
 10
136.58571461268843
 20
89.014284583132323
 11
173.99999969070049
 21
89.014284583132323
  0
LINE
  8
_f-0_
  6
CONTINUOUS
 62
    7
 10
136.1571430957456
 20
89.442856100075119
 11
173.99999969070049
 21
89.442856100075119
  0
LINE
  8
_f-0_
  6
CONTINUOUS
 62
    7
 10
135.72857157880276
 20
89.871427617017915
 11
173.99999969070049
 21
89.871427617017915
  0
LINE
  8
_f-0_
  6
CONTINUOUS
 62
    7
 10
135.72857157880301
 20
89.871427617017915
 11
135.72857157880301
 21
74.828570156023858
  0
LINE
  8
_f-0_
  6
CONTINUOUS
 62
    7
 10
136.15714309574585
 20
89.442856100075119
 11
136.15714309574585
 21
75.257141672966654
  0
LINE
  8
_f-0_
  6
CONTINUOUS
 62
    7
 10
136.58571461268869
 20
89.014284583132323
 11
136.58571461268869
 21
75.68571318990945
  0
LINE
  8
_f-0_
  6
CONTINUOUS
 62
    7
 10
137.01428612963153
 20
88.585713066189527
 11
137.01428612963153
 21
76.114284706852246
  0
LINE
  8
_f-0_
  6
CONTINUOUS
 62
    7
 10
137.44285764657437
 20
88.157141549246731
 11
137.44285764657437
 21
76.542856223795042
  0
LINE
  8
_f-0_
  6
CONTINUOUS
 62
    7
 10
137.87142916351721
 20
87.728570032303935
 11
137.87142916351721
 21
76.971427740737838
  0
LINE
  8
_f-0_
  6
CONTINUOUS
 62
    7
 10
137.87142916351695
 20
76.971427740737838
 11
171.42857058904372
 21
76.971427740737838
  0
LINE
  8
_f-0_
  6
CONTINUOUS
 62
    7
 10
137.44285764657411
 20
76.542856223795042
 11
171.85714210598647
 21
76.542856223795042
  0
LINE
  8
_f-0_
  6
CONTINUOUS
 62
    7
 10
137.01428612963127
 20
76.114284706852246
 11
172.28571362292922
 21
76.114284706852246
  0
LINE
  8
_f-0_
  6
CONTINUOUS
 62
    7
 10
136.58571461268843
 20
75.68571318990945
 11
172.71428513987198
 21
75.68571318990945
  0
LINE
  8
_f-0_
  6
CONTINUOUS
 62
    7
 10
136.1571430957456
 20
75.257141672966654
 11
173.14285665681473
 21
75.257141672966654
  0
LINE
  8
_f-0_
  6
CONTINUOUS
 62
    7
 10
135.72857157880276
 20
74.828570156023858
 11
173.57142817375748
 21
74.828570156023858
  0
LINE
  8
_f-0_
  6
CONTINUOUS
 62
    7
 10
171.42857058904372
 20
81.278573408090097
 11
149.39999647398275
 21
81.278573408090097
  0
LINE
  8
_f-0_
  6
CONTINUOUS
 62
    7
 10
171.85714210598647
 20
81.707143599462412
 11
149.39999647398275
 21
81.707143599462412
  0
LINE
  8
_f-0_
  6
CONTINUOUS
 62
    7
 10
172.28571362292922
 20
82.135713790834728
 11
149.39999647398275
 21
82.135713790834728
  0
LINE
  8
_f-0_
  6
CONTINUOUS
 62
    7
 10
172.71428513987198
 20
82.564283982207044
 11
149.39999647398275
 21
82.564283982207044
  0
LINE
  8
_f-0_
  6
CONTINUOUS
 62
    7
 10
173.14285665681473
 20
82.99285417357936
 11
149.39999647398275
 21
82.99285417357936
  0
LINE
  8
_f-0_
  6
CONTINUOUS
 62
    7
 10
173.57142817375748
 20
83.421424364951676
 11
149.39999647398275
 21
83.421424364951676
  0
LINE
  8
_f-0_
  6
CONTINUOUS
 62
    7
 10
171.42857058904372
 20
76.971427740737838
 11
171.42857058904372
 21
81.278573408090097
  0
LINE
  8
_f-0_
  6
CONTINUOUS
 62
    7
 10
171.85714210598647
 20
76.542856223795042
 11
171.85714210598647
 21
81.707143599462412
  0
LINE
  8
_f-0_
  6
CONTINUOUS
 62
    7
 10
172.28571362292922
 20
76.114284706852246
 11
172.28571362292922
 21
82.135713790834728
  0
LINE
  8
_f-0_
  6
CONTINUOUS
 62
    7
 10
172.71428513987198
 20
75.68571318990945
 11
172.71428513987198
 21
82.564283982207044
  0
LINE
  8
_f-0_
  6
CONTINUOUS
 62
    7
 10
173.14285665681473
 20
75.257141672966654
 11
173.14285665681473
 21
82.99285417357936
  0
LINE
  8
_f-0_
  6
CONTINUOUS
 62
    7
 10
173.57142817375748
 20
74.828570156023858
 11
173.57142817375748
 21
83.421424364951676
  0
TEXT
  8
_f-0_
 62
    7
 10
1025.3259252891035
 20
87.124495635161608
 40
12
 41
1
 50
0
  1
スケール
  0
TEXT
  8
_f-0_
 62
    2
 10
217.11338857702339
 20
66.541647008947507
 40
24
 41
1
 50
0
  1
GADELIUS  K.K
  0
TEXT
  8
_f-0_
 62
    2
 10
419.30552517850168
 20
65.641649607065716
 40
24
 41
1
 50
0
  1
SWEDEN DOOR
  0
TEXT
  8
_f-0_
 62
    7
 10
600.63447004362195
 20
65.666151256502616
 40
12
 41
1
 50
0
  1
玄関ドア参考納図（在来）
  0
TEXT
  8
_f-0_
 62
    7
 10
636.89637314127026
 20
52.145258457202459
 40
12
 41
1
 50
0
  1
（Ｈ＝2,080）
  0
LINE
  8
_1-e_
  6
CONTINUOUS
 62
   18
 10
238.20331483403476
 20
791.81430996121981
 11
238.20331483403476
 21
799.10581900791601
  0
INSERT
  2
-000-_DOTSMALL
  8
_1-e_
 10
238.20331483403476
 20
799.10581900791601
 41
0.6666666666666666
 42
0.6666666666666666
 50
180
  0
LINE
  8
_1-e_
  6
CONTINUOUS
 62
   18
 10
250.94025481933562
 20
660.59170516598863
 11
272.67867386641717
 21
660.59170516598863
  0
LINE
  8
_1-e_
  6
CONTINUOUS
 62
   18
 10
252.94025481933568
 20
649.49170516598861
 11
266.57026769430797
 21
649.49170516598861
  0
INSERT
  2
-000-_DOTSMALL
  8
_1-e_
 10
266.57026769430797
 20
649.49170516598861
 41
0.6666666666666666
 42
0.6666666666666666
 50
270
  0
INSERT
  2
-000-_DOTSMALL
  8
_1-e_
 10
266.57026769430797
 20
660.59170516598863
 41
0.6666666666666666
 42
0.6666666666666666
 50
90
  0
POINT
  8
_1-e_
 62
   18
 10
266.57026769430797
 20
660.59170516598863
  0
LINE
  8
_1-e_
  6
CONTINUOUS
 62
   18
 10
264.537599554498
 20
620.59170516598874
 11
272.67867386641717
 21
620.59170516598874
  0
LINE
  8
_1-e_
  6
CONTINUOUS
 62
   18
 10
272.67867386641717
 20
660.59170516598863
 11
272.67867386641717
 21
620.59170516598874
  0
INSERT
  2
-000-_DOTSMALL
  8
_1-e_
 10
272.67867386641717
 20
660.59170516598863
 41
0.6666666666666666
 42
0.6666666666666666
 50
90
  0
INSERT
  2
-000-_DOTSMALL
  8
_1-e_
 10
272.67867386641717
 20
620.59170516598874
 41
0.6666666666666666
 42
0.6666666666666666
 50
270
  0
POINT
  8
_1-e_
 62
   18
 10
272.67867386641717
 20
620.59170516598874
  0
LINE
  8
_1-e_
  6
CONTINUOUS
 62
   18
 10
266.53759955449777
 20
553.09170516598874
 11
280.93982417696731
 21
553.09170516598874
  0
LINE
  8
_1-e_
  6
CONTINUOUS
 62
   18
 10
272.67867386641717
 20
620.59170516598874
 11
272.67867386641717
 21
553.09170516598874
  0
INSERT
  2
-000-_DOTSMALL
  8
_1-e_
 10
272.67867386641717
 20
620.59170516598874
 41
0.6666666666666666
 42
0.6666666666666666
 50
90
  0
LINE
  8
_1-e_
  6
CONTINUOUS
 62
   18
 10
270.60813671045793
 20
756.69170516598865
 11
280.93982417696731
 21
756.69170516598865
  0
LINE
  8
_1-e_
  6
CONTINUOUS
 62
   18
 10
272.67867386641717
 20
660.59170516598863
 11
272.67867386641717
 21
756.69170516598865
  0
INSERT
  2
-000-_DOTSMALL
  8
_1-e_
 10
272.67867386641717
 20
660.59170516598863
 41
0.6666666666666666
 42
0.6666666666666666
 50
270
  0
INSERT
  2
-000-_DOTSMALL
  8
_1-e_
 10
272.67867386641717
 20
756.69170516598865
 41
0.6666666666666666
 42
0.6666666666666666
 50
90
  0
POINT
  8
_1-e_
 62
   18
 10
272.67867386641717
 20
756.69170516598865
  0
LINE
  8
_1-0_
  6
CONTINUOUS
 62
    7
 10
238.20331483403476
 20
759.84170516598897
 11
337.00331483403477
 21
759.84170516598897
  0
LINE
  8
_1-0_
  6
CONTINUOUS
 62
    7
 10
337.00331483403477
 20
759.84170516598897
 11
337.00331483403477
 21
551.84170516598897
  0
LINE
  8
_1-0_
  6
CONTINUOUS
 62
    7
 10
238.20331483403476
 20
551.84170516598897
 11
337.00331483403477
 21
551.84170516598897
  0
LINE
  8
_1-0_
  6
CONTINUOUS
 62
    7
 10
238.20331483403476
 20
759.84170516598897
 11
238.20331483403476
 21
551.84170516598897
  0
LINE
  8
_1-0_
  6
CONTINUOUS
 62
    7
 10
241.35331483403479
 20
553.09170516598874
 11
241.35331483403513
 21
756.69170516598865
  0
LINE
  8
_1-0_
  6
CONTINUOUS
 62
    7
 10
333.85331483403473
 20
756.69170516598842
 11
241.35331483403513
 21
756.69170516598865
  0
LINE
  8
_1-0_
  6
CONTINUOUS
 62
    7
 10
333.85331483403507
 20
585.02455674274131
 11
333.85331483403371
 21
725.04170516598833
  0
LINE
  8
_1-0_
  6
CONTINUOUS
 62
    7
 10
333.85331483403502
 20
739.05885358923547
 11
333.85331483403473
 21
756.69170516598842
  0
LINE
  8
_1-0_
  6
CONTINUOUS
 62
    7
 10
333.85331483403405
 20
553.09170516598829
 11
241.35331483403419
 21
553.09170516598874
  0
LINE
  8
_1-e_
  6
CONTINUOUS
 62
   18
 10
284.88437127969212
 20
553.09170516598874
 11
284.88437127969212
 21
756.69170516598865
  0
INSERT
  2
-000-_DOTSMALL
  8
_1-e_
 10
284.88437127969212
 20
553.09170516598874
 41
0.6666666666666666
 42
0.6666666666666666
 50
270
  0
INSERT
  2
-000-_DOTSMALL
  8
_1-e_
 10
284.88437127969212
 20
756.69170516598865
 41
0.6666666666666666
 42
0.6666666666666666
 50
90
  0
POINT
  8
_1-e_
 62
   18
 10
284.88437127969212
 20
756.69170516598865
  0
INSERT
  2
-000-_DOTSMALL
  8
_1-e_
 10
272.67867386641717
 20
553.09170516598874
 41
-0.6666666666666666
 42
0.6666666666666666
 50
-270
  0
POINT
  8
_1-e_
 62
   18
 10
272.67867386641717
 20
553.09170516598874
  0
INSERT
  2
-000-_DOTSMALL
  8
_1-e_
 10
272.67867386641717
 20
553.09170516598874
 41
0.6666666666666666
 42
0.6666666666666666
 50
270
  0
INSERT
  2
-000-_DOTSMALL
  8
_1-e_
 10
284.88437127969212
 20
553.09170516598874
 41
-0.6666666666666666
 42
0.6666666666666666
 50
-270
  0
TEXT
  8
_1-e_
 62
    4
 10
272.14739122891183
 20
578.60788430489094
 40
7.5
 41
1
 50
90
  1
675
  0
TEXT
  8
_1-e_
 62
    4
 10
272.24855428754552
 20
701.68733260437932
 40
7.5
 41
1
 50
90
  1
961
  0
TEXT
  8
_1-e_
 62
    4
 10
266.44302597555748
 20
650.45687463034051
 40
6
 41
1
 50
90
  1
111
  0
LINE
  8
_1-0_
  6
CONTINUOUS
 62
    7
 10
333.85331483403507
 20
553.09170516598829
 11
333.85331483403473
 21
571.04170516598822
  0
LINE
  8
_1-1_
  6
CONTINUOUS
 62
   18
 10
335.32831483403493
 20
739.04170516598833
 11
335.32831483403493
 21
725.04170516598833
  0
LINE
  8
_1-1_
  6
CONTINUOUS
 62
   18
 10
332.62831483403488
 20
739.04170516598833
 11
332.62831483403488
 21
725.04170516598833
  0
LINE
  8
_1-1_
  6
CONTINUOUS
 62
   18
 10
332.62831483403488
 20
725.04170516598833
 11
335.32831483403476
 21
725.04170516598833
  0
LINE
  8
_1-1_
  6
CONTINUOUS
 62
   18
 10
332.62831483403488
 20
731.8417051659884
 11
335.32831483403493
 21
731.8417051659884
  0
LINE
  8
_1-1_
  6
CONTINUOUS
 62
   18
 10
332.62831483403488
 20
732.24170516598838
 11
335.32831483403493
 21
732.24170516598838
  0
LINE
  8
_1-1_
  6
CONTINUOUS
 62
   18
 10
332.62831483403488
 20
739.04170516598833
 11
335.32831483403476
 21
739.04170516598833
  0
LINE
  8
_1-1_
  6
CONTINUOUS
 62
   18
 10
335.32831483403493
 20
585.04170516598845
 11
335.32831483403493
 21
571.04170516598833
  0
LINE
  8
_1-1_
  6
CONTINUOUS
 62
   18
 10
332.62831483403488
 20
585.04170516598845
 11
332.62831483403488
 21
571.04170516598833
  0
LINE
  8
_1-1_
  6
CONTINUOUS
 62
   18
 10
332.62831483403488
 20
571.04170516598833
 11
335.32831483403476
 21
571.04170516598833
  0
LINE
  8
_1-1_
  6
CONTINUOUS
 62
   18
 10
332.62831483403488
 20
577.84170516598829
 11
335.32831483403493
 21
577.84170516598829
  0
LINE
  8
_1-1_
  6
CONTINUOUS
 62
   18
 10
332.62831483403488
 20
578.24170516598838
 11
335.32831483403493
 21
578.24170516598838
  0
LINE
  8
_1-1_
  6
CONTINUOUS
 62
   18
 10
332.62831483403488
 20
585.04170516598845
 11
335.32831483403476
 21
585.04170516598845
  0
CIRCLE
  8
_1-1_
  6
CONTINUOUS
 62
   18
 10
246.49031483403377
 20
620.6088535892352
 40
2.4500000000000011
  0
CIRCLE
  8
_1-1_
  6
CONTINUOUS
 62
   18
 10
246.49031483403377
 20
620.53385358923333
 40
1.9500000000000002
  0
ARC
  8
_1-1_
  6
CONTINUOUS
 62
   18
 10
246.49031483403377
 20
621.28385358923606
 40
1
 50
0
 51
180
  0
LINE
  8
_1-1_
  6
CONTINUOUS
 62
   18
 10
246.39031483403377
 20
619.24302089791786
 11
246.39031483403377
 21
620.60277055694485
  0
LINE
  8
_1-1_
  6
CONTINUOUS
 62
   18
 10
246.59031483403376
 20
619.24302089791786
 11
246.59031483403376
 21
620.60277055694485
  0
CIRCLE
  8
_1-1_
  6
CONTINUOUS
 62
   18
 10
246.49031483403377
 20
619.78385358923526
 40
0.825
  0
ARC
  8
_1-1_
  6
CONTINUOUS
 62
   18
 10
246.49031483403377
 20
619.78385358923526
 40
1
 50
180
 51
0
  0
ARC
  8
_1-1_
  6
CONTINUOUS
 62
   18
 10
246.49031483403377
 20
619.78385358923526
 40
0.5499999999999999
 50
100.47568169648632
 51
79.524318303513724
  0
LINE
  8
_1-1_
  6
CONTINUOUS
 62
   18
 10
247.49031483403226
 20
621.28385358923606
 11
247.49031483403226
 21
619.78385358923526
  0
LINE
  8
_1-1_
  6
CONTINUOUS
 62
   18
 10
245.49031483403434
 20
621.28385358923606
 11
245.49031483403434
 21
619.78385358923526
  0
CIRCLE
  8
_1-1_
  6
CONTINUOUS
 62
   18
 10
246.49031483403377
 20
660.60885358923542
 40
2.4500000000000011
  0
ARC
  8
_1-1_
  6
CONTINUOUS
 62
   18
 10
246.49031483403377
 20
649.50885358923631
 40
2.4500000000000011
 50
14.175803515917231
 51
345.82419648408279
  0
ARC
  8
_1-1_
  6
CONTINUOUS
 62
   18
 10
246.49031483403377
 20
649.50885358923631
 40
1.9500000000000002
 50
17.92021313934254
 51
342.07978686065746
  0
ARC
  8
_1-1_
  6
CONTINUOUS
 62
   18
 10
255.69031483403452
 20
649.20885358923897
 40
0.3
 50
270
 51
0
  0
ARC
  8
_1-1_
  6
CONTINUOUS
 62
   18
 10
255.69031483403452
 20
649.80885358923865
 40
0.3
 50
0
 51
90
  0
LINE
  8
_1-1_
  6
CONTINUOUS
 62
   18
 10
255.99031483403374
 20
649.80885358923865
 11
255.99031483403374
 21
649.20885358923897
  0
LINE
  8
_1-1_
  6
CONTINUOUS
 62
   18
 10
245.49031483403434
 20
649.80885358923865
 11
245.49031483403434
 21
649.20885358923897
  0
ARC
  8
_1-1_
  6
CONTINUOUS
 62
   18
 10
245.79031483403449
 20
649.80885358923865
 40
0.3
 50
90
 51
180
  0
ARC
  8
_1-1_
  6
CONTINUOUS
 62
   18
 10
245.79031483403449
 20
649.20885358923897
 40
0.3
 50
180
 51
270
  0
LINE
  8
_1-1_
  6
CONTINUOUS
 62
   18
 10
245.79031483403449
 20
650.10885358923599
 11
255.69031483403452
 21
650.10885358923599
  0
LINE
  8
_1-1_
  6
CONTINUOUS
 62
   18
 10
245.79031483403449
 20
648.9088535892372
 11
255.69031483403452
 21
648.9088535892372
  0
CIRCLE
  8
_1-1_
  6
CONTINUOUS
 62
   18
 10
246.49031483403377
 20
660.53385358923333
 40
1.9500000000000002
  0
LINE
  8
_1-1_
  6
CONTINUOUS
 62
   18
 10
247.49031483403226
 20
661.28385358923606
 11
247.49031483403226
 21
659.78385358923538
  0
LINE
  8
_1-1_
  6
CONTINUOUS
 62
   18
 10
246.59031483403376
 20
659.24302089791786
 11
246.59031483403376
 21
660.60277055694485
  0
LINE
  8
_1-1_
  6
CONTINUOUS
 62
   18
 10
246.39031483403377
 20
659.24302089791786
 11
246.39031483403377
 21
660.60277055694485
  0
LINE
  8
_1-1_
  6
CONTINUOUS
 62
   18
 10
245.49031483403434
 20
661.28385358923606
 11
245.49031483403434
 21
659.78385358923538
  0
ARC
  8
_1-1_
  6
CONTINUOUS
 62
   18
 10
246.49031483403377
 20
659.78385358923538
 40
0.5499999999999999
 50
100.47568169648632
 51
79.524318303513724
  0
ARC
  8
_1-1_
  6
CONTINUOUS
 62
   18
 10
246.49031483403377
 20
659.78385358923538
 40
1
 50
180
 51
0
  0
CIRCLE
  8
_1-1_
  6
CONTINUOUS
 62
   18
 10
246.49031483403377
 20
659.78385358923538
 40
0.825
  0
ARC
  8
_1-1_
  6
CONTINUOUS
 62
   18
 10
246.49031483403377
 20
661.28385358923606
 40
1
 50
0
 51
180
  0
TEXT
  8
_1-e_
 62
    4
 10
272.34367529713467
 20
633.53000866422246
 40
7.5
 41
1
 50
90
  1
400
  0
LINE
  8
_1-0_
  6
CONTINUOUS
 62
    7
 10
337.00331483403477
 20
786.13584049302222
 11
337.00331483403477
 21
775.63584049302222
  0
LINE
  8
_1-0_
  6
CONTINUOUS
 62
    7
 10
332.60331483403479
 20
781.43584049302206
 11
332.60331483403479
 21
775.63584049302222
  0
LINE
  8
_1-0_
  6
CONTINUOUS
 62
    7
 10
242.60331483403459
 20
781.4358404930224
 11
332.60331483403479
 21
781.43584049302206
  0
LINE
  8
_1-0_
  6
CONTINUOUS
 62
    7
 10
238.20331483403476
 20
786.13584049302244
 11
337.00331483403477
 21
786.13584049302222
  0
LINE
  8
_1-0_
  6
CONTINUOUS
 62
    7
 10
242.60331483403459
 20
781.4358404930224
 11
242.60331483403476
 21
775.63584049302222
  0
LINE
  8
_1-0_
  6
CONTINUOUS
 62
    7
 10
238.20331483403476
 20
775.63584049302244
 11
337.00331483403477
 21
775.63584049302222
  0
LINE
  8
_1-0_
  6
CONTINUOUS
 62
    7
 10
238.20331483403476
 20
786.13584049302222
 11
238.20331483403476
 21
775.63584049302222
  0
LINE
  8
_1-e_
  6
CONTINUOUS
 62
   18
 10
266.57026769430797
 20
649.49170516598861
 11
266.57026769430797
 21
660.59170516598863
  0
INSERT
  2
-000-_DOTSMALL
  8
_1-e_
 10
266.57026769430797
 20
649.49170516598861
 41
-0.6666666666666666
 42
0.6666666666666666
 50
-270
  0
INSERT
  2
-000-_DOTSMALL
  8
_1-e_
 10
266.57026769430797
 20
660.59170516598863
 41
-0.6666666666666666
 42
0.6666666666666666
 50
-90
  0
LINE
  8
_1-e_
  6
CONTINUOUS
 62
    7
 10
254.85331483403488
 20
501.37824107634111
 11
320.35331483403485
 21
501.37824107634111
  0
LINE
  8
_1-e_
  6
CONTINUOUS
 62
    7
 10
320.35331483403485
 20
501.37824107634111
 11
320.35331483403485
 21
485.71222313004989
  0
LINE
  8
_1-e_
  6
CONTINUOUS
 62
    7
 10
320.35331483403485
 20
485.71222313004989
 11
254.85331483403488
 21
485.71222313004989
  0
LINE
  8
_1-e_
  6
CONTINUOUS
 62
    7
 10
254.85331483403488
 20
485.71222313004989
 11
254.85331483403488
 21
501.37824107634111
  0
TEXT
  8
_1-e_
 62
    4
 10
257.76543570912509
 20
489.73478534391609
 40
7.5
 41
1
 50
0
  1
玄関ドアH＝2,080
  0
LINE
  8
_1-d_
  6
CONTINUOUS
 62
   18
 10
233.43331485180562
 20
810.90584047525272
 11
341.7733148162651
 21
810.90584047525272
  0
LINE
  8
_1-d_
  6
CONTINUOUS
 62
   18
 10
337.00331483403477
 20
547.0717051837587
 11
337.00331483403477
 21
511.07170520611038
  0
LINE
  8
_1-d_
  6
CONTINUOUS
 62
   18
 10
238.20331483403595
 20
517.0717051837587
 11
337.00331483403477
 21
517.0717051837587
  0
CIRCLE
  8
_1-d_
  6
CONTINUOUS
 62
   18
 10
337.00331483403477
 20
517.0717051837587
 40
1.7254760742187498
  0
LINE
  8
_1-d_
  6
CONTINUOUS
 62
   18
 10
337.00331483403477
 20
517.0717051837587
 11
341.7733148162651
 21
517.0717051837587
  0
CIRCLE
  8
_1-d_
  6
CONTINUOUS
 62
   18
 10
238.20331483403595
 20
517.0717051837587
 40
1.7254760742187498
  0
LINE
  8
_1-d_
  6
CONTINUOUS
 62
   18
 10
233.43331485180562
 20
517.0717051837587
 11
238.20331483403595
 21
517.0717051837587
  0
TEXT
  8
_1-d_
 62
    4
 10
270.9181864336075
 20
517.90300330200739
 40
7.5
 41
1
 50
0
  1
外枠W=988
  0
LINE
  8
_1-d_
  6
CONTINUOUS
 62
   18
 10
238.20331483403595
 20
547.0717051837587
 11
238.20331483403595
 21
511.07170520611038
  0
CIRCLE
  8
_1-d_
  6
CONTINUOUS
 62
   18
 10
241.35331483403496
 20
527.07170518375858
 40
1.7254760742187498
  0
LINE
  8
_1-d_
  6
CONTINUOUS
 62
   18
 10
241.35331483403496
 20
547.0717051837587
 11
241.35331483403496
 21
521.07170520611044
  0
LINE
  8
_1-d_
  6
CONTINUOUS
 62
   18
 10
236.58331485180463
 20
527.07170518375858
 11
338.49831481626507
 21
527.07170518375858
  0
CIRCLE
  8
_1-d_
  6
CONTINUOUS
 62
   18
 10
333.85331483403473
 20
527.07170518375858
 40
1.7254760742187498
  0
LINE
  8
_1-d_
  6
CONTINUOUS
 62
   18
 10
333.85331483403473
 20
547.0717051837587
 11
333.85331483403473
 21
521.07170520611044
  0
TEXT
  8
_1-d_
 62
    4
 10
270.9181864336075
 20
527.90300330200739
 40
7.5
 41
1
 50
0
  1
ドアW=925
  0
CIRCLE
  8
_1-d_
  6
CONTINUOUS
 62
   18
 10
241.35331483403496
 20
810.90584047525272
 40
1.7254760742187498
  0
LINE
  8
_1-d_
  6
CONTINUOUS
 62
   18
 10
241.35331483403496
 20
790.90584047525272
 11
241.35331483403496
 21
816.90584045290097
  0
CIRCLE
  8
_1-d_
  6
CONTINUOUS
 62
   18
 10
333.85331483403473
 20
810.90584047525272
 40
1.7254760742187498
  0
LINE
  8
_1-d_
  6
CONTINUOUS
 62
   18
 10
333.85331483403473
 20
790.90584047525272
 11
333.85331483403473
 21
816.90584045290097
  0
CIRCLE
  8
_1-d_
  6
CONTINUOUS
 62
   18
 10
238.20331483403595
 20
810.90584047525272
 40
1.7254760742187498
  0
CIRCLE
  8
_1-d_
  6
CONTINUOUS
 62
   18
 10
337.00331483403477
 20
810.90584047525272
 40
1.7254760742187498
  0
TEXT
  8
_1-d_
 62
    4
 10
281.83160905377872
 20
811.75643146843083
 40
7.5
 41
1
 50
0
  1
900
  0
TEXT
  8
_1-d_
 62
    4
 10
339.47630214518625
 20
811.75643146843083
 40
7.5
 41
1
 50
0
  1
44
  0
TEXT
  8
_1-d_
 62
    4
 10
227.42724429947575
 20
811.75643146843083
 40
7.5
 41
1
 50
0
  1
44
  0
CIRCLE
  8
_1-d_
  6
CONTINUOUS
 62
   18
 10
213.4333148518042
 20
775.63584049302358
 40
1.7254760742187498
  0
LINE
  8
_1-d_
  6
CONTINUOUS
 62
   18
 10
233.43331485180425
 20
775.63584049302358
 11
207.43331487415603
 21
775.63584049302358
  0
CIRCLE
  8
_1-d_
  6
CONTINUOUS
 62
   18
 10
213.43331485180428
 20
786.13584049302153
 40
1.7254760742187498
  0
LINE
  8
_1-d_
  6
CONTINUOUS
 62
   18
 10
233.43331485180425
 20
786.13584049302153
 11
207.43331487415603
 21
786.13584049302153
  0
CIRCLE
  8
_1-d_
  6
CONTINUOUS
 62
   18
 10
213.4333148518042
 20
781.4358404930224
 40
1.7254760742187498
  0
LINE
  8
_1-d_
  6
CONTINUOUS
 62
   18
 10
233.43331485180425
 20
781.4358404930224
 11
207.43331487415603
 21
781.4358404930224
  0
LINE
  8
_1-d_
  6
CONTINUOUS
 62
   18
 10
213.4333148518042
 20
766.63584049302244
 11
213.4333148518042
 21
795.13584049302222
  0
TEXT
  8
_1-d_
 62
    4
 10
212.87505232471722
 20
788.90122328310724
 40
7.5
 41
1
 50
90
  1
47
  0
TEXT
  8
_1-d_
 62
    4
 10
212.80294533732803
 20
765.89909430594355
 40
7.5
 41
1
 50
90
  1
58
  0
LINE
  8
_1-d_
  6
CONTINUOUS
 62
   18
 10
238.20331483403595
 20
790.90584047525272
 11
238.20331483403595
 21
816.90584045290097
  0
LINE
  8
_1-d_
  6
CONTINUOUS
 62
   18
 10
337.00331483403477
 20
790.90584047525272
 11
337.00331483403477
 21
816.90584045290097
  0
TEXT
  8
_1-e_
 62
    4
 10
284.12397084374584
 20
629.97490166629052
 40
7.5
 41
1
 50
90
  1
ドアH＝2,036
  0
LINE
  8
_1-d_
  6
CONTINUOUS
 62
   18
 10
172.26331486957457
 20
732.04170516598856
 11
151.53331487415647
 21
732.04170516598856
  0
LINE
  8
_1-e_
  6
CONTINUOUS
 62
   18
 10
193.23331485185565
 20
628.06670516599092
 11
184.63331485185572
 21
628.06670516599092
  0
LINE
  8
_1-e_
  6
CONTINUOUS
 62
   18
 10
184.63331485185572
 20
610.0667051659907
 11
193.23331485185565
 21
610.0667051659907
  0
LINE
  8
_1-e_
  6
CONTINUOUS
 62
   18
 10
183.73331485180401
 20
665.03929423142597
 11
186.28331485177782
 21
665.03929423142597
  0
ARC
  8
_1-e_
  6
CONTINUOUS
 62
   18
 10
186.08331485182805
 20
660.88924763841987
 40
1.6574999999998696
 50
5.4526219878063671
 51
174.54737801219281
  0
ARC
  8
_1-e_
  6
CONTINUOUS
 62
   18
 10
186.08331485182805
 20
649.19416269356122
 40
1.6574999999998696
 50
185.45262198780722
 51
354.54737801219358
  0
LINE
  8
_1-e_
  6
CONTINUOUS
 62
   18
 10
183.73331485180401
 20
645.03929423142381
 11
186.28331485177782
 21
645.03929423142381
  0
ARC
  8
_1-e_
  6
CONTINUOUS
 62
   18
 10
186.08331485182805
 20
623.91140954394689
 40
1.6574999999998696
 50
5.4526219878063671
 51
174.54737801219281
  0
ARC
  8
_1-e_
  6
CONTINUOUS
 62
   18
 10
186.08331485182805
 20
622.4117221720312
 40
1.6574999999998696
 50
5.4526219878063671
 51
174.54737801219281
  0
ARC
  8
_1-e_
  6
CONTINUOUS
 62
   18
 10
186.08331485182805
 20
615.72027856789964
 40
1.6574999999998696
 50
185.45262198780722
 51
354.54737801219358
  0
ARC
  8
_1-e_
  6
CONTINUOUS
 62
   18
 10
186.08331485182805
 20
614.22200078808021
 40
1.6574999999998696
 50
185.45262198780722
 51
354.54737801219358
  0
LINE
  8
_1-e_
  6
CONTINUOUS
 62
   18
 10
184.43331485185573
 20
610.26670516599074
 11
184.43331485185573
 21
627.86670516599088
  0
ARC
  8
_1-e_
  6
CONTINUOUS
 62
   18
 10
184.63331485185572
 20
610.26670516599074
 40
0.2
 50
180.0000000000004
 51
270.00000000000051
  0
ARC
  8
_1-e_
  6
CONTINUOUS
 62
   18
 10
184.63331485185572
 20
627.86670516599088
 40
0.2
 50
90.000000000000199
 51
180.0000000000004
  0
LINE
  8
_1-e_
  6
CONTINUOUS
 62
   18
 10
184.43331749257354
 20
649.03663503107498
 11
184.43331749257354
 21
661.04677530090601
  0
LINE
  8
_1-e_
  6
CONTINUOUS
 62
   18
 10
183.73331485180401
 20
665.13929423142599
 11
183.73331485180401
 21
645.03929423142381
  0
CIRCLE
  8
_1-e_
  6
STYLE_05
 62
   18
 10
190.63331485185572
 20
615.60590026236946
 40
2
  0
LINE
  8
_1-e_
  6
CONTINUOUS
 62
   18
 10
193.43331485185573
 20
627.86670516599088
 11
193.43331485185573
 21
610.26670516599074
  0
LINE
  8
_1-e_
  6
CONTINUOUS
 62
   18
 10
187.73331485180037
 20
614.06450078805722
 11
187.73331485180037
 21
624.06890954392441
  0
CIRCLE
  8
_1-e_
  6
CONTINUOUS
 62
   18
 10
187.03331485185566
 20
611.06670516599081
 40
0.1749999999999999
  0
CIRCLE
  8
_1-e_
  6
STYLE_04
 62
   18
 10
187.03331485185566
 20
611.06670516599081
 40
0.5249999999999999
  0
CIRCLE
  8
_1-e_
  6
CONTINUOUS
 62
   18
 10
187.03331485185566
 20
611.06670516599081
 40
0.2749999999999999
  0
LINE
  8
_1-e_
  6
STYLE_02
 62
   18
 10
186.15033782086465
 20
611.06670516599081
 11
187.95816002095319
 21
611.06670516599081
  0
LINE
  8
_1-e_
  6
STYLE_02
 62
   18
 10
187.03331485185566
 20
611.97849650952753
 11
187.03331485185566
 21
610.34509535874793
  0
ARC
  8
_1-e_
  6
CONTINUOUS
 62
   18
 10
193.23331485185565
 20
610.26670516599074
 40
0.2
 50
270.00000000000051
 51
0.0000000000000127
  0
CIRCLE
  8
_1-e_
  6
CONTINUOUS
 62
   18
 10
190.63331485185572
 20
611.06670516599081
 40
0.1749999999999999
  0
CIRCLE
  8
_1-e_
  6
CONTINUOUS
 62
   18
 10
190.63331485185572
 20
611.06670516599081
 40
0.2749999999999999
  0
LINE
  8
_1-e_
  6
STYLE_02
 62
   18
 10
190.63331485185572
 20
611.97849650952753
 11
190.63331485185572
 21
610.34509535874793
  0
CIRCLE
  8
_1-e_
  6
STYLE_04
 62
   18
 10
190.63331485185572
 20
611.06670516599081
 40
0.5249999999999999
  0
LINE
  8
_1-e_
  6
STYLE_02
 62
   18
 10
189.76598222104181
 20
611.06670516599081
 11
191.50001575990225
 21
611.06670516599081
  0
LINE
  8
_1-e_
  6
CONTINUOUS
 62
   18
 10
185.96250264798746
 20
612.56890954394612
 11
186.20412705566864
 21
612.56890954394612
  0
CIRCLE
  8
_1-e_
  6
STYLE_05
 62
   18
 10
190.63331485185572
 20
622.60590026236935
 40
2
  0
CIRCLE
  8
_1-e_
  6
STYLE_04
 62
   18
 10
192.4333148518557
 20
619.0667051659907
 40
0.5249999999999999
  0
CIRCLE
  8
_1-e_
  6
CONTINUOUS
 62
   18
 10
192.4333148518557
 20
619.0667051659907
 40
0.1749999999999999
  0
CIRCLE
  8
_1-e_
  6
CONTINUOUS
 62
   18
 10
192.4333148518557
 20
619.0667051659907
 40
0.2749999999999999
  0
LINE
  8
_1-e_
  6
STYLE_02
 62
   18
 10
192.4333148518557
 20
618.36670516599065
 11
192.4333148518557
 21
619.76670516599086
  0
CIRCLE
  8
_1-e_
  6
CONTINUOUS
 62
   18
 10
188.83331485185565
 20
619.0667051659907
 40
0.1749999999999999
  0
CIRCLE
  8
_1-e_
  6
STYLE_04
 62
   18
 10
188.83331485185565
 20
619.0667051659907
 40
0.5249999999999999
  0
CIRCLE
  8
_1-e_
  6
CONTINUOUS
 62
   18
 10
188.83331485185565
 20
619.0667051659907
 40
0.2749999999999999
  0
LINE
  8
_1-e_
  6
STYLE_02
 62
   18
 10
188.83331485185565
 20
618.36670516599065
 11
188.83331485185565
 21
619.76670516599086
  0
LINE
  8
_1-e_
  6
STYLE_03
 62
   18
 10
186.08331485182788
 20
621.56670516599092
 11
186.08331485182805
 21
616.56670516599092
  0
CIRCLE
  8
_1-e_
  6
CONTINUOUS
 62
   18
 10
187.03331485185566
 20
627.06670516599092
 40
0.1749999999999999
  0
LINE
  8
_1-e_
  6
STYLE_02
 62
   18
 10
187.03331485185566
 20
627.86670516599088
 11
187.03331485185566
 21
626.16785674989364
  0
CIRCLE
  8
_1-e_
  6
STYLE_04
 62
   18
 10
187.03331485185566
 20
627.06670516599092
 40
0.5249999999999999
  0
CIRCLE
  8
_1-e_
  6
CONTINUOUS
 62
   18
 10
187.03331485185566
 20
627.06670516599092
 40
0.2749999999999999
  0
LINE
  8
_1-e_
  6
STYLE_02
 62
   18
 10
186.15033782086465
 20
627.06670516599092
 11
187.95816002095319
 21
627.06670516599092
  0
ARC
  8
_1-e_
  6
CONTINUOUS
 62
   18
 10
193.23331485185565
 20
627.86670516599088
 40
0.2
 50
0
 51
90.000000000000199
  0
CIRCLE
  8
_1-e_
  6
CONTINUOUS
 62
   18
 10
190.63331485185572
 20
627.06670516599092
 40
0.1749999999999999
  0
CIRCLE
  8
_1-e_
  6
CONTINUOUS
 62
   18
 10
190.63331485185572
 20
627.06670516599092
 40
0.2749999999999999
  0
LINE
  8
_1-e_
  6
STYLE_02
 62
   18
 10
190.63331485185572
 20
627.86670516599088
 11
190.63331485185572
 21
626.16785674989364
  0
CIRCLE
  8
_1-e_
  6
STYLE_04
 62
   18
 10
190.63331485185572
 20
627.06670516599092
 40
0.5249999999999999
  0
LINE
  8
_1-e_
  6
STYLE_02
 62
   18
 10
189.76598222104181
 20
627.06670516599092
 11
191.50001575990225
 21
627.06670516599092
  0
LINE
  8
_1-e_
  6
CONTINUOUS
 62
   18
 10
187.73331485180037
 20
646.48929423144637
 11
187.73331485180037
 21
663.6892942314488
  0
ARC
  8
_1-e_
  6
CONTINUOUS
 62
   18
 10
186.28331485177782
 20
646.48929423144637
 40
1.45
 50
270
 51
0
  0
LINE
  8
_1-e_
  6
STYLE_03
 62
   18
 10
186.08331485182805
 20
657.54170516599061
 11
186.08331485182805
 21
652.54170516599061
  0
ARC
  8
_1-e_
  6
CONTINUOUS
 62
   18
 10
186.28331485177782
 20
663.58929423142604
 40
1.45
 50
0
 51
89.999999999999815
  0
LINE
  8
_1-0_
  6
CONTINUOUS
 62
    7
 10
183.73331485180418
 20
756.94170516598899
 11
183.73331485180401
 21
552.28870779720819
  0
LINE
  8
_1-0_
  6
CONTINUOUS
 62
    7
 10
188.433314851804
 20
756.94170516598899
 11
183.73331485180418
 21
756.94170516598899
  0
LINE
  8
_1-0_
  6
CONTINUOUS
 62
    7
 10
183.73331485180418
 20
759.84170516598897
 11
183.73331485180401
 21
756.94170516598899
  0
LINE
  8
_1-0_
  6
CONTINUOUS
 62
    7
 10
194.23331485180418
 20
759.84170516598897
 11
183.73331485180418
 21
759.84170516598897
  0
LINE
  8
_1-0_
  6
CONTINUOUS
 62
    7
 10
188.43331485180417
 20
755.44170516598899
 11
188.433314851804
 21
554.23455674273941
  0
LINE
  8
_1-0_
  6
CONTINUOUS
 62
    7
 10
194.23331485180418
 20
755.44170516598899
 11
188.433314851804
 21
755.44170516598899
  0
LINE
  8
_1-0_
  6
CONTINUOUS
 62
    7
 10
188.433314851804
 20
756.94170516598899
 11
188.433314851804
 21
755.44170516598899
  0
LINE
  8
_1-0_
  6
CONTINUOUS
 62
    7
 10
194.23331485180401
 20
755.44170516598899
 11
194.23331485180418
 21
552.95170516598318
  0
LINE
  8
_1-0_
  6
CONTINUOUS
 62
    7
 10
194.23331485180418
 20
759.84170516598897
 11
194.23331485180418
 21
755.44170516598899
  0
LINE
  8
_1-e_
  6
CONTINUOUS
 62
    7
 10
183.7786483673282
 20
552.34366508838764
 11
188.52418592699499
 21
552.85479799889799
  0
LINE
  8
_1-e_
  6
CONTINUOUS
 62
    7
 10
183.78183122625668
 20
552.19132895812436
 11
184.68438542002841
 21
552.14516271584205
  0
ARC
  8
_1-e_
  6
CONTINUOUS
 62
    7
 10
183.78183122625668
 20
552.29376649713458
 40
0.05
 50
92.862405226125205
 51
180
  0
ARC
  8
_1-e_
  6
CONTINUOUS
 62
    7
 10
183.78183122625668
 20
552.24132895812318
 40
0.05
 50
180.0000000000249
 51
270
  0
LINE
  8
_1-e_
  6
CONTINUOUS
 62
    7
 10
183.77933434543192
 20
551.99408032194913
 11
184.68438200382988
 21
552.04031202719307
  0
ARC
  8
_1-e_
  6
CONTINUOUS
 62
    7
 10
183.78183122625668
 20
551.94414270499919
 40
0.05
 50
92.862405226125205
 51
180
  0
ARC
  8
_1-e_
  6
CONTINUOUS
 62
    7
 10
183.78183122625668
 20
551.89170516598779
 40
0.05
 50
180.0000000000249
 51
270
  0
ARC
  8
_1-e_
  6
CONTINUOUS
 62
    7
 10
184.678786788595
 20
552.09040264514135
 40
0.05
 50
272.92424513677634
 51
0.0000000000000254
  0
ARC
  8
_1-e_
  6
CONTINUOUS
 62
    7
 10
184.678786788595
 20
552.09538372251154
 40
0.05
 50
0.000000000000007
 51
87.071835050268859
  0
LINE
  8
_1-e_
  6
CONTINUOUS
 62
    7
 10
184.72878678860519
 20
552.09538372251154
 11
184.72878678860519
 21
552.09040264514135
  0
LINE
  8
_1-e_
  6
CONTINUOUS
 62
    7
 10
183.73183122625665
 20
552.29376649713458
 11
183.73183122625665
 21
552.24132895812318
  0
LINE
  8
_1-e_
  6
CONTINUOUS
 62
    7
 10
183.73183122625665
 20
551.94414270499919
 11
183.73183122625665
 21
551.89170516598779
  0
LINE
  8
_1-e_
  6
CONTINUOUS
 62
    7
 10
188.52418592699499
 20
552.85479799889799
 11
188.52418592699499
 21
553.14170516598097
  0
LINE
  8
_1-e_
  6
CONTINUOUS
 62
    7
 10
188.72418592699029
 20
552.9417051659857
 11
188.72418592699029
 21
553.34170516598761
  0
LINE
  8
_1-e_
  6
CONTINUOUS
 62
    7
 10
188.73418592701049
 20
552.95170516598318
 11
188.73418592701049
 21
553.34170516598761
  0
ARC
  8
_1-e_
  6
CONTINUOUS
 62
    7
 10
184.88183122625338
 20
551.89170516598779
 40
0.05
 50
270
 51
0
  0
LINE
  8
_1-e_
  6
CONTINUOUS
 62
    7
 10
184.93183122626357
 20
552.2542292159892
 11
184.93183122626357
 21
551.89170516598779
  0
LINE
  8
_1-e_
  6
CONTINUOUS
 62
    7
 10
188.55421911497208
 20
552.58645730339367
 11
188.55421911497208
 21
552.04170516598424
  0
ARC
  8
_1-e_
  6
CONTINUOUS
 62
    7
 10
188.5042191149619
 20
552.58645730339367
 40
0.05
 50
0.000000000000007
 51
94.943247752830175
  0
LINE
  8
_1-e_
  6
CONTINUOUS
 62
    7
 10
188.903954550538
 20
551.84170516598897
 11
188.40395455057256
 21
551.84170516598897
  0
LINE
  8
_1-e_
  6
CONTINUOUS
 62
    7
 10
188.75421911496738
 20
552.74170516599042
 11
188.75421911496738
 21
552.04170516598424
  0
LINE
  8
_1-e_
  6
CONTINUOUS
 62
    7
 10
188.85395455057326
 20
552.04170516598424
 11
188.75421911496738
 21
552.04170516598424
  0
LINE
  8
_1-e_
  6
CONTINUOUS
 62
    7
 10
188.55421911497208
 20
552.04170516598424
 11
188.4539545505373
 21
552.04170516598424
  0
LINE
  8
_1-e_
  6
CONTINUOUS
 62
    7
 10
188.40395455057256
 20
551.99170516598542
 11
188.40395455057256
 21
551.84170516598897
  0
ARC
  8
_1-e_
  6
CONTINUOUS
 62
    7
 10
188.4539545505373
 20
551.99170516598542
 40
0.05
 50
90
 51
180
  0
LINE
  8
_1-e_
  6
CONTINUOUS
 62
    7
 10
188.903954550538
 20
551.99170516598542
 11
188.903954550538
 21
551.84170516598897
  0
ARC
  8
_1-e_
  6
CONTINUOUS
 62
    7
 10
188.85395455057326
 20
551.99170516598542
 40
0.05
 50
0.000000000000007
 51
90.000000000000014
  0
LINE
  8
_1-e_
  6
CONTINUOUS
 62
    7
 10
188.40280999091698
 20
552.63598637888208
 11
188.49991066716535
 21
552.63627133031378
  0
LINE
  8
_1-e_
  6
CONTINUOUS
 62
    7
 10
188.32024926863195
 20
552.63627374345333
 11
188.40280999091698
 21
552.63598637888208
  0
LINE
  8
_1-e_
  6
CONTINUOUS
 62
    7
 10
184.93183122626357
 20
552.2542292159892
 11
188.32024926863195
 21
552.63627374345333
  0
LINE
  8
_1-e_
  6
CONTINUOUS
 62
    7
 10
192.233314851806
 20
552.9417051659857
 11
192.233314851806
 21
551.84170516598897
  0
LINE
  8
_1-e_
  6
CONTINUOUS
 62
    7
 10
191.94331485181061
 20
552.04170516598424
 11
192.03331485181079
 21
552.04170516598424
  0
LINE
  8
_1-e_
  6
CONTINUOUS
 62
    7
 10
191.89331485180043
 20
551.84170516598897
 11
191.89331485180043
 21
551.99170516598542
  0
ARC
  8
_1-e_
  6
CONTINUOUS
 62
    7
 10
191.94331485181061
 20
551.99170516598542
 40
0.05
 50
89.999999999927383
 51
180
  0
LINE
  8
_1-e_
  6
CONTINUOUS
 62
    7
 10
192.03331485181079
 20
552.74170516599042
 11
192.03331485181079
 21
552.04170516598424
  0
LINE
  8
_1-e_
  6
CONTINUOUS
 62
    7
 10
192.233314851806
 20
551.84170516598897
 11
191.89331485180043
 21
551.84170516598897
  0
LINE
  8
_1-e_
  6
CONTINUOUS
 62
    7
 10
192.233314851806
 20
552.9417051659857
 11
188.72418592699029
 21
552.9417051659857
  0
LINE
  8
_1-e_
  6
CONTINUOUS
 62
    7
 10
192.03331485181079
 20
552.74170516599042
 11
188.75421911496738
 21
552.74170516599042
  0
LINE
  8
_1-e_
  6
CONTINUOUS
 62
    7
 10
192.24331485182628
 20
552.95170516598318
 11
188.73418592701049
 21
552.95170516598318
  0
LINE
  8
_1-e_
  6
CONTINUOUS
 62
    7
 10
188.73418592701049
 20
553.45177378026392
 11
188.433314851804
 21
553.45177378026392
  0
LINE
  8
_1-e_
  6
CONTINUOUS
 62
    7
 10
188.433314851804
 20
553.45177378026392
 11
188.433314851804
 21
554.25170516598644
  0
ARC
  8
_1-e_
  6
CONTINUOUS
 62
    7
 10
188.6741859269801
 20
553.39177378026761
 40
0.05
 50
0.000000000000007
 51
126.869897645845
  0
LINE
  8
_1-e_
  6
CONTINUOUS
 62
    7
 10
188.72418592699029
 20
553.34170516598761
 11
188.72418592699029
 21
553.39177378026761
  0
ARC
  8
_1-e_
  6
CONTINUOUS
 62
    7
 10
188.34487194306837
 20
553.16170516598731
 40
0.02
 50
132.19118800539223
 51
270
  0
LINE
  8
_1-e_
  6
CONTINUOUS
 62
    7
 10
188.33143981013157
 20
553.17652332392072
 11
188.6441859270104
 21
553.43177378026894
  0
LINE
  8
_1-e_
  6
CONTINUOUS
 62
    7
 10
188.34487194306837
 20
553.14170516598097
 11
188.52418592699499
 21
553.14170516598097
  0
LINE
  8
_1-e_
  6
CONTINUOUS
 62
    7
 10
188.73418592701049
 20
553.34170516598761
 11
188.73418592701049
 21
553.45177378026392
  0
LINE
  8
_1-e_
  6
CONTINUOUS
 62
    7
 10
194.14331485180409
 20
554.3417051659867
 11
188.52331485180417
 21
554.3417051659867
  0
ARC
  8
_1-e_
  6
CONTINUOUS
 62
    7
 10
194.14331485180409
 20
554.25170516598644
 40
0.0899999999999999
 50
0.0000000000020426
 51
90.000000000000014
  0
ARC
  8
_1-e_
  6
CONTINUOUS
 62
    7
 10
188.52331485180417
 20
554.25170516598644
 40
0.0899999999999999
 50
90
 51
180
  0
LINE
  8
_1-0_
  6
CONTINUOUS
 62
    7
 10
184.88183122625338
 20
551.84170516598897
 11
183.78183122625668
 21
551.84170516598897
  0
LINE
  8
_1-0_
  6
DASHED1
 62
    7
 10
194.23331485180418
 20
551.84170516598897
 11
192.24331485182628
 21
551.84170516598897
  0
LINE
  8
_1-0_
  6
DASHED1
 62
    7
 10
194.23331485180418
 20
552.95170516598318
 11
194.23331485180418
 21
551.84170516598897
  0
LINE
  8
_1-0_
  6
DASHED1
 62
    7
 10
192.24331485182628
 20
552.95170516598318
 11
192.24331485182628
 21
551.84170516598897
  0
CIRCLE
  8
_1-e_
  6
CONTINUOUS
 62
   18
 10
189.933314851804
 20
732.04170516598856
 40
0.6999999999999999
  0
LINE
  8
_1-e_
  6
STYLE_03
 62
   18
 10
189.933314851804
 20
733.24170516598861
 11
189.933314851804
 21
730.84170516598851
  0
LINE
  8
_1-e_
  6
STYLE_03
 62
   18
 10
188.73331485180407
 20
732.04170516598856
 11
191.13331485180402
 21
732.04170516598856
  0
LINE
  8
_1-e_
  6
STYLE_03
 62
   18
 10
189.933314851804
 20
686.82455674274195
 11
189.933314851804
 21
684.42455674274197
  0
CIRCLE
  8
_1-e_
  6
CONTINUOUS
 62
   18
 10
189.933314851804
 20
685.62455674274202
 40
0.6999999999999999
  0
LINE
  8
_1-e_
  6
STYLE_03
 62
   18
 10
188.73331485180407
 20
685.62455674274202
 11
191.13331485180402
 21
685.62455674274202
  0
CIRCLE
  8
_1-e_
  6
CONTINUOUS
 62
   18
 10
189.933314851804
 20
631.84170516598851
 40
0.6999999999999999
  0
LINE
  8
_1-e_
  6
STYLE_03
 62
   18
 10
188.73331485180407
 20
631.84170516598851
 11
191.13331485180402
 21
631.84170516598851
  0
LINE
  8
_1-e_
  6
STYLE_03
 62
   18
 10
189.933314851804
 20
633.04170516598856
 11
189.933314851804
 21
630.64170516598847
  0
LINE
  8
_1-e_
  6
STYLE_03
 62
   18
 10
188.72603171873706
 20
578.04170516598856
 11
191.12603171873701
 21
578.04170516598856
  0
CIRCLE
  8
_1-e_
  6
CONTINUOUS
 62
   18
 10
189.92603171873699
 20
578.04170516598856
 40
0.6999999999999999
  0
LINE
  8
_1-e_
  6
STYLE_03
 62
   18
 10
189.92603171873699
 20
579.24170516598849
 11
189.92603171873699
 21
576.84170516598851
  0
CIRCLE
  8
_1-d_
  6
CONTINUOUS
 62
   18
 10
213.4333148518042
 20
759.8417051659892
 40
1.7254760742187498
  0
LINE
  8
_1-d_
  6
CONTINUOUS
 62
   18
 10
213.4333148518042
 20
764.61170514821947
 11
213.4333148518042
 21
759.8417051659892
  0
CIRCLE
  8
_1-d_
  6
CONTINUOUS
 62
   18
 10
213.4333148518042
 20
755.4417051659882
 40
1.7254760742187498
  0
LINE
  8
_1-d_
  6
CONTINUOUS
 62
   18
 10
213.4333148518042
 20
750.67170518375781
 11
213.4333148518042
 21
759.8417051659892
  0
LINE
  8
_1-d_
  6
CONTINUOUS
 62
   18
 10
205.7033148340343
 20
755.4417051659882
 11
218.20331483403453
 21
755.4417051659882
  0
LINE
  8
_1-d_
  6
CONTINUOUS
 62
   18
 10
199.00331483403443
 20
759.8417051659892
 11
218.20331483403453
 21
759.8417051659892
  0
TEXT
  8
_1-d_
 62
    4
 10
223.74466906805873
 20
754.25767380226557
 40
7.5
 41
1
 50
90
  1
44
  0
TEXT
  8
_1-d_
 62
    4
 10
196.8129976371406
 20
728.74709755545769
 40
6
 41
1
 50
0
  1
43
  0
INSERT
  2
-000-_DOTSMALL
  8
_1-d_
 10
189.933314851804
 20
728.29270611592631
 41
0.6666666666666666
 42
-0.6666666666666666
 50
-180
  0
INSERT
  2
-000-_DOTSMALL
  8
_1-d_
 10
189.933314851804
 20
728.29270611592631
 41
0.6666666666666666
 42
0.6666666666666666
 50
180
  0
LINE
  8
_1-d_
  6
CONTINUOUS
 62
   18
 10
194.23331485180401
 20
728.29270611592631
 11
203.23331485180401
 21
728.29270611592631
  0
LINE
  8
_1-d_
  6
CONTINUOUS
 62
   18
 10
189.933314851804
 20
728.29270611592631
 11
194.23331485180401
 21
728.29270611592631
  0
LINE
  8
_1-d_
  6
CONTINUOUS
 62
   18
 10
189.933314851804
 20
729.66296734036098
 11
189.933314851804
 21
728.29270611592631
  0
LINE
  8
_1-d_
  6
CONTINUOUS
 62
   18
 10
157.53331485180473
 20
759.84170516598897
 11
157.53331485180473
 21
740.44170516598899
  0
LINE
  8
_1-d_
  6
CONTINUOUS
 62
   18
 10
157.5333148518049
 20
569.44170516598899
 11
157.5333148518049
 21
551.84170516598897
  0
LINE
  8
_1-d_
  6
CONTINUOUS
 62
   18
 10
157.5333148518049
 20
551.84170516598897
 11
157.5333148518049
 21
547.0717051837587
  0
CIRCLE
  8
_1-d_
  6
CONTINUOUS
 62
   18
 10
157.5333148518049
 20
551.84170516598897
 40
1.7254760742187498
  0
CIRCLE
  8
_1-d_
  6
CONTINUOUS
 62
   18
 10
157.53331485180473
 20
759.84170516598897
 40
1.7254760742187498
  0
LINE
  8
_1-d_
  6
CONTINUOUS
 62
   18
 10
157.53331485180473
 20
764.61170514821936
 11
157.53331485180473
 21
759.84170516598897
  0
CIRCLE
  8
_1-d_
  6
CONTINUOUS
 62
   18
 10
147.53331485180453
 20
759.84170516598897
 40
1.7254760742187498
  0
LINE
  8
_1-d_
  6
CONTINUOUS
 62
   18
 10
147.5333148518047
 20
764.61170514821936
 11
147.5333148518047
 21
547.0717051837587
  0
CIRCLE
  8
_1-d_
  6
CONTINUOUS
 62
   18
 10
147.5333148518047
 20
551.84170516598897
 40
1.7254760742187498
  0
LINE
  8
_1-d_
  6
CONTINUOUS
 62
   18
 10
178.96331486957445
 20
551.84170516598897
 11
141.53331487415645
 21
551.84170516598897
  0
LINE
  8
_1-d_
  6
CONTINUOUS
 62
   18
 10
178.96331486957445
 20
759.84170516598897
 11
141.53331487415645
 21
759.84170516598897
  0
TEXT
  8
_1-d_
 62
    4
 10
147.23331485180464
 20
646.46670516598897
 40
7.5
 41
1
 50
90
  1
2,080
  0
LINE
  8
_1-d_
  6
CONTINUOUS
 62
   18
 10
172.26331486957457
 20
685.64170516598847
 11
151.53331487415664
 21
685.64170516598847
  0
CIRCLE
  8
_1-d_
  6
CONTINUOUS
 62
   18
 10
157.5333148518049
 20
685.64170516598847
 40
1.7254760742187498
  0
LINE
  8
_1-d_
  6
CONTINUOUS
 62
   18
 10
172.26331486957457
 20
631.84170516598851
 11
151.53331487415664
 21
631.84170516598851
  0
LINE
  8
_1-d_
  6
CONTINUOUS
 62
   18
 10
172.26331486957457
 20
578.04170516598856
 11
151.53331487415664
 21
578.04170516598856
  0
CIRCLE
  8
_1-d_
  6
CONTINUOUS
 62
   18
 10
157.5333148518049
 20
578.04170516598856
 40
1.7254760742187498
  0
TEXT
  8
_1-d_
 62
    4
 10
157.00545511086835
 20
559.03427457695921
 40
7.5
 41
1
 50
90
  1
262
  0
TEXT
  8
_1-d_
 62
    4
 10
156.81007061850175
 20
600.0556770816836
 40
7.5
 41
1
 50
90
  1
538
  0
TEXT
  8
_1-d_
 62
    4
 10
157.23331485180492
 20
653.71670516598897
 40
7.5
 41
1
 50
90
  1
538
  0
TEXT
  8
_1-d_
 62
    4
 10
157.27973373096125
 20
740.61223806760745
 40
7.5
 41
1
 50
90
  1
278
  0
TEXT
  8
_1-d_
 62
    4
 10
156.91102218671674
 20
702.21749025979477
 40
7.5
 41
1
 50
90
  1
464
  0
CIRCLE
  8
_1-d_
  6
CONTINUOUS
 62
   18
 10
157.5333148518049
 20
631.84170516598851
 40
1.7254760742187498
  0
CIRCLE
  8
_1-d_
  6
CONTINUOUS
 62
   18
 10
157.53331485180473
 20
732.04170516598856
 40
1.7254760742187498
  0
LINE
  8
_1-d_
  6
CONTINUOUS
 62
   18
 10
157.5333148518049
 20
740.44170516598899
 11
157.5333148518049
 21
683.44170516598899
  0
LINE
  8
_1-d_
  6
CONTINUOUS
 62
   18
 10
157.5333148518049
 20
683.44170516598899
 11
157.5333148518049
 21
569.44170516598899
  0
CIRCLE
  8
_1-d_
  6
CONTINUOUS
 62
   18
 10
157.5333148518049
 20
732.04170516598856
 40
1.7254760742187498
  0
LINE
  8
_1-d_
  6
CONTINUOUS
 62
   18
 10
172.26331486957457
 20
732.04170516598856
 11
151.53331487415664
 21
732.04170516598856
  0
LINE
  8
_1-d_
  6
CONTINUOUS
 62
   18
 10
157.5333148518049
 20
734.41170514821897
 11
157.53331485180473
 21
727.27170518375817
  0
LINE
  8
_1-d_
  6
CONTINUOUS
 62
   18
 10
157.5333148518049
 20
685.64170516598847
 11
157.5333148518049
 21
680.87170518375819
  0
LINE
  8
_1-d_
  6
CONTINUOUS
 62
   18
 10
157.5333148518049
 20
690.41170514821886
 11
157.5333148518049
 21
685.64170516598847
  0
LINE
  8
_1-d_
  6
CONTINUOUS
 62
   18
 10
172.26331486957457
 20
685.64170516598847
 11
151.53331487415664
 21
685.64170516598847
  0
CIRCLE
  8
_1-d_
  6
CONTINUOUS
 62
   18
 10
157.5333148518049
 20
685.64170516598847
 40
1.7254760742187498
  0
LINE
  8
_1-d_
  6
CONTINUOUS
 62
   18
 10
172.26331486957457
 20
578.04170516598856
 11
151.53331487415664
 21
578.04170516598856
  0
CIRCLE
  8
_1-d_
  6
CONTINUOUS
 62
   18
 10
157.5333148518049
 20
578.04170516598856
 40
1.7254760742187498
  0
LINE
  8
_1-0_
  6
CONTINUOUS
 62
    7
 10
380.97331481626622
 20
755.44170516598842
 11
380.97331481626611
 21
552.95170516598318
  0
LINE
  8
_1-0_
  6
CONTINUOUS
 62
    7
 10
386.77331481626618
 20
755.44170516598842
 11
386.77331481626629
 21
554.23455674273885
  0
LINE
  8
_1-0_
  6
CONTINUOUS
 62
    7
 10
391.47331481626611
 20
756.94170516598842
 11
391.47331481626628
 21
552.28870779720762
  0
LINE
  8
_1-0_
  6
CONTINUOUS
 62
    7
 10
380.97331481626611
 20
759.84170516598851
 11
391.47331481626611
 21
759.84170516598851
  0
LINE
  8
_1-0_
  6
CONTINUOUS
 62
    7
 10
386.77331481626618
 20
756.94170516598842
 11
391.47331481626611
 21
756.94170516598842
  0
LINE
  8
_1-0_
  6
CONTINUOUS
 62
    7
 10
386.77331481626618
 20
756.94170516598842
 11
386.77331481626618
 21
755.44170516598842
  0
LINE
  8
_1-0_
  6
CONTINUOUS
 62
    7
 10
391.47331481626611
 20
759.84170516598851
 11
391.47331481626622
 21
756.94170516598842
  0
LINE
  8
_1-e_
  6
CONTINUOUS
 62
    7
 10
386.47244374105981
 20
552.95170516598318
 11
386.47244374105981
 21
553.34170516598761
  0
LINE
  8
_1-e_
  6
CONTINUOUS
 62
    7
 10
386.48244374108009
 20
552.9417051659857
 11
386.48244374108009
 21
553.34170516598761
  0
LINE
  8
_1-e_
  6
CONTINUOUS
 62
    7
 10
386.6824437410753
 20
552.85479799889799
 11
386.6824437410753
 21
553.14170516598097
  0
LINE
  8
_1-e_
  6
CONTINUOUS
 62
    7
 10
391.47479844181373
 20
551.94414270499919
 11
391.47479844181373
 21
551.89170516598779
  0
LINE
  8
_1-e_
  6
CONTINUOUS
 62
    7
 10
391.47479844181373
 20
552.29376649713458
 11
391.47479844181373
 21
552.24132895812318
  0
LINE
  8
_1-e_
  6
STYLE_01
 62
    7
 10
380.97331481626611
 20
552.95170516598318
 11
380.97331481626611
 21
551.84170516598897
  0
LINE
  8
_1-e_
  6
CONTINUOUS
 62
    7
 10
380.98059794933243
 20
551.84170516598886
 11
380.97331481626611
 21
551.84898829905512
  0
LINE
  8
_1-e_
  6
CONTINUOUS
 62
    7
 10
382.97331481626429
 20
551.84170516598897
 11
383.31331481626995
 21
551.84170516598897
  0
LINE
  8
_1-e_
  6
CONTINUOUS
 62
    7
 10
383.17331481625956
 20
552.74170516599042
 11
383.17331481625956
 21
552.04170516598424
  0
ARC
  8
_1-e_
  6
CONTINUOUS
 62
    7
 10
383.26331481625976
 20
551.99170516598542
 40
0.05
 50
0.000000000000007
 51
90.000000000072674
  0
LINE
  8
_1-e_
  6
CONTINUOUS
 62
    7
 10
383.31331481626995
 20
551.84170516598897
 11
383.31331481626995
 21
551.99170516598542
  0
LINE
  8
_1-e_
  6
CONTINUOUS
 62
    7
 10
383.26331481625976
 20
552.04170516598424
 11
383.17331481625956
 21
552.04170516598424
  0
LINE
  8
_1-e_
  6
STYLE_01
 62
    7
 10
382.96331481624406
 20
552.95170516598318
 11
382.96331481624406
 21
551.84170516598897
  0
LINE
  8
_1-e_
  6
CONTINUOUS
 62
    7
 10
382.97331481626418
 20
552.9417051659857
 11
382.97331481626429
 21
551.84170516598897
  0
LINE
  8
_1-e_
  6
STYLE_01
 62
    7
 10
380.97331481626611
 20
551.84170516598897
 11
382.96331481624406
 21
551.84170516598897
  0
LINE
  8
_1-e_
  6
CONTINUOUS
 62
    7
 10
386.88638039943834
 20
552.63627374345333
 11
386.8038196771534
 21
552.63598637888208
  0
LINE
  8
_1-e_
  6
CONTINUOUS
 62
    7
 10
386.8038196771534
 20
552.63598637888208
 11
386.70671900090503
 21
552.63627133031378
  0
LINE
  8
_1-e_
  6
CONTINUOUS
 62
    7
 10
386.30267511753237
 20
551.84170516598897
 11
386.80267511749781
 21
551.84170516598897
  0
ARC
  8
_1-e_
  6
CONTINUOUS
 62
    7
 10
386.35267511749714
 20
551.99170516598542
 40
0.05
 50
90
 51
180
  0
LINE
  8
_1-e_
  6
CONTINUOUS
 62
    7
 10
386.30267511753237
 20
551.99170516598542
 11
386.30267511753237
 21
551.84170516598897
  0
ARC
  8
_1-e_
  6
CONTINUOUS
 62
    7
 10
386.75267511753304
 20
551.99170516598542
 40
0.05
 50
0.000000000000007
 51
90.000000000000014
  0
LINE
  8
_1-e_
  6
CONTINUOUS
 62
    7
 10
386.80267511749781
 20
551.99170516598542
 11
386.80267511749781
 21
551.84170516598897
  0
LINE
  8
_1-e_
  6
CONTINUOUS
 62
    7
 10
386.35267511749714
 20
552.04170516598424
 11
386.45241055310299
 21
552.04170516598424
  0
LINE
  8
_1-e_
  6
CONTINUOUS
 62
    7
 10
386.65241055309821
 20
552.04170516598424
 11
386.75267511753304
 21
552.04170516598424
  0
LINE
  8
_1-e_
  6
CONTINUOUS
 62
    7
 10
386.45241055310299
 20
552.74170516599042
 11
386.45241055310299
 21
552.04170516598424
  0
ARC
  8
_1-e_
  6
CONTINUOUS
 62
    7
 10
386.70241055310839
 20
552.58645730339367
 40
0.05
 50
85.056752247169854
 51
180
  0
LINE
  8
_1-e_
  6
CONTINUOUS
 62
    7
 10
386.65241055309821
 20
552.58645730339367
 11
386.65241055309821
 21
552.04170516598424
  0
ARC
  8
_1-e_
  6
CONTINUOUS
 62
    7
 10
390.52784287947532
 20
552.09040264514135
 40
0.05
 50
180
 51
267.07575486322372
  0
ARC
  8
_1-e_
  6
CONTINUOUS
 62
    7
 10
390.52784287947532
 20
552.09538372251166
 40
0.05
 50
92.928164949731141
 51
180
  0
LINE
  8
_1-e_
  6
CONTINUOUS
 62
    7
 10
391.42479844181366
 20
552.19132895812436
 11
390.52224424804194
 21
552.14516271584205
  0
ARC
  8
_1-e_
  6
CONTINUOUS
 62
    7
 10
391.42479844181366
 20
552.29376649713458
 40
0.05
 50
0.000000000000007
 51
87.137594773874838
  0
ARC
  8
_1-e_
  6
CONTINUOUS
 62
    7
 10
391.42479844181366
 20
552.24132895812318
 40
0.05
 50
270
 51
359.99999999997522
  0
LINE
  8
_1-e_
  6
CONTINUOUS
 62
    7
 10
390.47784287946513
 20
552.09538372251166
 11
390.47784287946513
 21
552.09040264514135
  0
LINE
  8
_1-e_
  6
CONTINUOUS
 62
    7
 10
391.42729532263854
 20
551.99408032194913
 11
390.52224766424047
 21
552.04031202719307
  0
ARC
  8
_1-e_
  6
CONTINUOUS
 62
    7
 10
390.32479844181699
 20
551.89170516598779
 40
0.05
 50
180
 51
270
  0
LINE
  8
_1-e_
  6
CONTINUOUS
 62
    7
 10
390.27479844180681
 20
552.2542292159892
 11
390.27479844180681
 21
551.89170516598779
  0
ARC
  8
_1-e_
  6
CONTINUOUS
 62
    7
 10
391.42479844181366
 20
551.94414270499919
 40
0.05
 50
0.000000000000007
 51
87.137594773874838
  0
ARC
  8
_1-e_
  6
CONTINUOUS
 62
    7
 10
391.42479844181366
 20
551.89170516598779
 40
0.05
 50
270
 51
359.99999999997522
  0
LINE
  8
_1-e_
  6
CONTINUOUS
 62
    7
 10
390.32479844181699
 20
551.84170516598897
 11
391.42479844181366
 21
551.84170516598897
  0
LINE
  8
_1-e_
  6
CONTINUOUS
 62
    7
 10
390.27479844180681
 20
552.2542292159892
 11
386.88638039943834
 21
552.63627374345333
  0
LINE
  8
_1-e_
  6
CONTINUOUS
 62
    7
 10
391.42798130074209
 20
552.34366508838764
 11
386.6824437410753
 21
552.85479799889799
  0
LINE
  8
_1-e_
  6
CONTINUOUS
 62
    7
 10
382.96331481624406
 20
552.95170516598318
 11
386.47244374105981
 21
552.95170516598318
  0
LINE
  8
_1-e_
  6
CONTINUOUS
 62
    7
 10
383.17331481625956
 20
552.74170516599042
 11
386.45241055310299
 21
552.74170516599042
  0
LINE
  8
_1-e_
  6
CONTINUOUS
 62
    7
 10
382.97331481626429
 20
552.9417051659857
 11
386.48244374108009
 21
552.9417051659857
  0
LINE
  8
_1-e_
  6
CONTINUOUS
 62
    7
 10
386.47244374105981
 20
553.34170516598761
 11
386.47244374105981
 21
553.45177378026392
  0
LINE
  8
_1-e_
  6
CONTINUOUS
 62
    7
 10
386.86175772500184
 20
553.14170516598097
 11
386.6824437410753
 21
553.14170516598097
  0
LINE
  8
_1-e_
  6
CONTINUOUS
 62
    7
 10
386.87518985793884
 20
553.17652332392072
 11
386.56244374105995
 21
553.43177378026894
  0
ARC
  8
_1-e_
  6
CONTINUOUS
 62
    7
 10
386.86175772500184
 20
553.16170516598731
 40
0.02
 50
270
 51
47.808811994607829
  0
LINE
  8
_1-e_
  6
CONTINUOUS
 62
    7
 10
386.48244374108009
 20
553.34170516598761
 11
386.48244374108009
 21
553.39177378026761
  0
ARC
  8
_1-e_
  6
CONTINUOUS
 62
    7
 10
386.53244374109028
 20
553.39177378026761
 40
0.05
 50
53.130102354154971
 51
180
  0
LINE
  8
_1-e_
  6
CONTINUOUS
 62
    7
 10
386.77331481626618
 20
553.45177378026392
 11
386.77331481626618
 21
554.25170516598644
  0
LINE
  8
_1-e_
  6
CONTINUOUS
 62
    7
 10
386.47244374105981
 20
553.45177378026392
 11
386.77331481626618
 21
553.45177378026392
  0
ARC
  8
_1-e_
  6
CONTINUOUS
 62
    7
 10
386.68331481626603
 20
554.25170516598644
 40
0.0899999999999999
 50
0.000000000000007
 51
90.000000000000014
  0
ARC
  8
_1-e_
  6
CONTINUOUS
 62
    7
 10
381.06331481626626
 20
554.25170516598644
 40
0.0899999999999999
 50
90
 51
179.99999999999801
  0
LINE
  8
_1-0_
  6
CONTINUOUS
 62
    7
 10
381.06331481626626
 20
554.3417051659867
 11
386.68331481626603
 21
554.3417051659867
  0
LINE
  8
_1-0_
  6
CONTINUOUS
 62
    7
 10
380.97331481626628
 20
755.44170516598842
 11
386.77331481626618
 21
755.44170516598842
  0
LINE
  8
_1-0_
  6
CONTINUOUS
 62
    7
 10
380.97331481626611
 20
759.84170516598851
 11
380.97331481626628
 21
755.44170516598842
  0
LINE
  8
_1-e_
  6
CONTINUOUS
 62
   18
 10
387.83059794933985
 20
573.97455674268917
 11
387.83059794933985
 21
582.07455674270216
  0
LINE
  8
_1-e_
  6
CONTINUOUS
 62
   18
 10
391.48059794933312
 20
572.52455674275757
 11
391.48059794933312
 21
583.52455674272483
  0
LINE
  8
_1-e_
  6
CONTINUOUS
 62
   18
 10
391.48059794933312
 20
572.49955674275247
 11
389.28059794933972
 21
572.49955674275247
  0
ARC
  8
_1-e_
  6
CONTINUOUS
 62
   18
 10
389.28059794933972
 20
573.94955674268408
 40
1.45
 50
180
 51
270
  0
ARC
  8
_1-e_
  6
CONTINUOUS
 62
   18
 10
389.28059794933972
 20
580.25048135538077
 40
1.3740753873253388
 50
29.153875979131023
 51
150.84612402086543
  0
ARC
  8
_1-e_
  6
CONTINUOUS
 62
   18
 10
389.28543653764154
 20
580.44164563694926
 40
0.9062500000000284
 50
353.26707869420358
 51
186.73292130608172
  0
LINE
  8
_1-e_
  6
CONTINUOUS
 62
   18
 10
390.18543653764311
 20
575.49487150323523
 11
390.18543653764311
 21
580.48617889031652
  0
LINE
  8
_1-e_
  6
CONTINUOUS
 62
   18
 10
390.48059794933408
 20
575.12455674274156
 11
390.48059794933408
 21
580.91987150324906
  0
LINE
  8
_1-e_
  6
CONTINUOUS
 62
   18
 10
388.38543653764015
 20
575.49487150323523
 11
388.38543653764015
 21
580.48617889031652
  0
LINE
  8
_1-e_
  6
CONTINUOUS
 62
   18
 10
388.08059794934525
 20
575.12455674274156
 11
388.08059794934525
 21
580.91987150324906
  0
ARC
  8
_1-e_
  6
CONTINUOUS
 62
   18
 10
389.28059794933972
 20
575.8031281713213
 40
1.378571428571618
 50
209.4871256729366
 51
330.51287432705612
  0
ARC
  8
_1-e_
  6
CONTINUOUS
 62
   18
 10
389.28543653764154
 20
575.60112150327984
 40
0.9062500000000284
 50
186.73292132685637
 51
353.26707867314371
  0
LINE
  8
_1-e_
  6
CONTINUOUS
 62
   18
 10
391.48059794933312
 20
583.54955674272992
 11
389.28059794933972
 21
583.54955674272992
  0
ARC
  8
_1-e_
  6
CONTINUOUS
 62
   18
 10
389.28059794933972
 20
582.09955674270736
 40
1.45
 50
90
 51
180
  0
ARC
  8
_1-e_
  6
CONTINUOUS
 62
   18
 10
389.27815340457454
 20
729.61826992652686
 40
0.9062500000000284
 50
186.73292132685637
 51
353.26707867314371
  0
ARC
  8
_1-e_
  6
CONTINUOUS
 62
   18
 10
389.27331481627272
 20
729.82027659456855
 40
1.378571428571618
 50
209.4871256729366
 51
330.51287432705612
  0
LINE
  8
_1-e_
  6
CONTINUOUS
 62
   18
 10
387.82331481627284
 20
727.99170516593631
 11
387.82331481627284
 21
736.09170516594941
  0
LINE
  8
_1-e_
  6
CONTINUOUS
 62
   18
 10
391.47331481626611
 20
726.54170516600482
 11
391.47331481626611
 21
737.54170516597196
  0
LINE
  8
_1-e_
  6
CONTINUOUS
 62
   18
 10
391.47331481626611
 20
726.51670516599961
 11
389.27331481627272
 21
726.51670516599961
  0
ARC
  8
_1-e_
  6
CONTINUOUS
 62
   18
 10
389.27331481627272
 20
727.96670516593133
 40
1.45
 50
180
 51
270
  0
ARC
  8
_1-e_
  6
CONTINUOUS
 62
   18
 10
389.27815340457454
 20
734.45879406019651
 40
0.9062500000000284
 50
353.26707869420358
 51
186.73292130608172
  0
ARC
  8
_1-e_
  6
CONTINUOUS
 62
   18
 10
389.27331481627272
 20
734.26762977862802
 40
1.3740753873253388
 50
29.153875979131023
 51
150.84612402086543
  0
LINE
  8
_1-e_
  6
CONTINUOUS
 62
   18
 10
390.47331481626713
 20
729.14170516598881
 11
390.47331481626713
 21
734.9370199264963
  0
LINE
  8
_1-e_
  6
CONTINUOUS
 62
   18
 10
388.07331481627824
 20
729.14170516598881
 11
388.07331481627824
 21
734.9370199264963
  0
LINE
  8
_1-e_
  6
CONTINUOUS
 62
   18
 10
390.17815340457611
 20
729.51201992648259
 11
390.17815340457611
 21
734.50332731356377
  0
LINE
  8
_1-e_
  6
CONTINUOUS
 62
   18
 10
388.37815340457314
 20
729.51201992648259
 11
388.37815340457314
 21
734.50332731356377
  0
LINE
  8
_1-e_
  6
CONTINUOUS
 62
   18
 10
391.47331481626611
 20
737.56670516597717
 11
389.27331481627272
 21
737.56670516597717
  0
ARC
  8
_1-e_
  6
CONTINUOUS
 62
   18
 10
389.27331481627272
 20
736.11670516595461
 40
1.45
 50
90
 51
180
  0
CIRCLE
  8
_1-e_
  6
CONTINUOUS
 62
   18
 10
385.27331481626618
 20
732.04170516598845
 40
0.6999999999999999
  0
LINE
  8
_1-e_
  6
STYLE_03
 62
   18
 10
385.27331481626618
 20
733.24170516598849
 11
385.27331481626618
 21
730.8417051659884
  0
LINE
  8
_1-e_
  6
CONTINUOUS
 62
   18
 10
385.84380476295661
 20
731.63606835710038
 11
384.70282486957564
 21
732.44734197487651
  0
POINT
  8
_1-e_
 62
   18
 10
385.27331481626629
 20
732.0874997750733
  0
LINE
  8
_1-e_
  6
STYLE_03
 62
   18
 10
385.27331481626618
 20
686.84170516598851
 11
385.27331481626618
 21
684.44170516598854
  0
LINE
  8
_1-e_
  6
STYLE_03
 62
   18
 10
386.47331481626622
 20
685.64170516598847
 11
384.07331481626619
 21
685.64170516598847
  0
CIRCLE
  8
_1-e_
  6
CONTINUOUS
 62
   18
 10
385.27331481626618
 20
685.64170516598847
 40
0.6999999999999999
  0
LINE
  8
_1-e_
  6
STYLE_03
 62
   18
 10
385.27331481626618
 20
633.04170516598856
 11
385.27331481626618
 21
630.64170516598847
  0
CIRCLE
  8
_1-e_
  6
CONTINUOUS
 62
   18
 10
385.27331481626618
 20
631.84170516598851
 40
0.6999999999999999
  0
LINE
  8
_1-e_
  6
STYLE_03
 62
   18
 10
386.47331481626622
 20
631.84170516598851
 11
384.07331481626619
 21
631.84170516598851
  0
LINE
  8
_1-e_
  6
STYLE_03
 62
   18
 10
385.28059794933313
 20
579.22455674274136
 11
385.28059794933313
 21
576.82455674274138
  0
CIRCLE
  8
_1-e_
  6
CONTINUOUS
 62
   18
 10
385.28059794933313
 20
578.0245567427412
 40
0.6999999999999999
  0
LINE
  8
_1-e_
  6
CONTINUOUS
 62
   18
 10
385.82203629387789
 20
577.58088510847062
 11
384.73915960478837
 21
578.468228377012
  0
INSERT
  2
-000-_DOTSMALL
  8
_1-e_
 10
385.82203629387789
 20
577.58088510847062
 41
0.6666666666666666
 42
0.6666666666666666
 50
140.6677294296546
  0
INSERT
  2
-000-_DOTSMALL
  8
_1-e_
 10
384.73915960478837
 20
578.468228377012
 41
0.6666666666666666
 42
0.6666666666666666
 50
320.66772942965468
  0
POINT
  8
_1-e_
 62
   18
 10
384.73915960478837
 20
578.468228377012
  0
POINT
  8
_1-e_
 62
   18
 10
385.82203629387789
 20
577.58088510847062
  0
INSERT
  2
-000-_DOTSMALL
  8
_1-e_
 10
384.73915960478837
 20
578.468228377012
 41
0.6666666666666666
 42
-0.6666666666666666
 50
-399.33227057034492
  0
INSERT
  2
-000-_DOTSMALL
  8
_1-e_
 10
385.82203629387789
 20
577.58088510847062
 41
0.6666666666666666
 42
-0.6666666666666666
 50
-219.3322705703448
  0
TEXT
  8
_1-d_
 62
    4
 10
394.23869760635125
 20
775.2297989115242
 40
7.5
 41
1
 50
0
  1
47
  0
CIRCLE
  8
_1-d_
  6
CONTINUOUS
 62
   18
 10
380.97331481626748
 20
784.61170514821879
 40
1.7254760742187498
  0
LINE
  8
_1-d_
  6
CONTINUOUS
 62
   18
 10
380.97331481626748
 20
764.6117051482189
 11
380.97331481626748
 21
790.61170512586705
  0
CIRCLE
  8
_1-d_
  6
CONTINUOUS
 62
   18
 10
391.47331481626532
 20
784.61170514821879
 40
1.7254760742187498
  0
LINE
  8
_1-d_
  6
CONTINUOUS
 62
   18
 10
371.97331481626628
 20
784.61170514821879
 11
400.47331481626611
 21
784.61170514821879
  0
CIRCLE
  8
_1-d_
  6
CONTINUOUS
 62
   18
 10
380.97331481626748
 20
774.67153638443722
 40
1.7254760742187498
  0
CIRCLE
  8
_1-d_
  6
CONTINUOUS
 62
   18
 10
391.47331481626532
 20
774.67153638443722
 40
1.7254760742187498
  0
LINE
  8
_1-d_
  6
CONTINUOUS
 62
   18
 10
371.97331481626628
 20
774.67153638443722
 11
400.47331481626611
 21
774.67153638443722
  0
CIRCLE
  8
_1-d_
  6
CONTINUOUS
 62
   18
 10
386.77331481626629
 20
774.67153638443722
 40
1.7254760742187498
  0
LINE
  8
_1-d_
  6
CONTINUOUS
 62
   18
 10
386.77331481626629
 20
764.6117051482189
 11
386.77331481626629
 21
780.67153636208548
  0
LINE
  8
_1-d_
  6
CONTINUOUS
 62
   18
 10
420.67331481626627
 20
683.44170516598945
 11
420.67331481626627
 21
569.44170516598945
  0
LINE
  8
_1-d_
  6
CONTINUOUS
 62
   18
 10
420.67331481626638
 20
759.84170516598931
 11
420.67331481626638
 21
740.44170516598945
  0
LINE
  8
_1-d_
  6
CONTINUOUS
 62
   18
 10
420.67331481626627
 20
740.44170516598945
 11
420.67331481626627
 21
683.44170516598945
  0
LINE
  8
_1-d_
  6
CONTINUOUS
 62
   18
 10
420.67331481626627
 20
569.44170516598945
 11
420.67331481626627
 21
551.84170516598942
  0
LINE
  8
_1-d_
  6
CONTINUOUS
 62
   18
 10
420.67331481626627
 20
551.84170516598942
 11
420.67331481626627
 21
547.07170518375892
  0
CIRCLE
  8
_1-d_
  6
CONTINUOUS
 62
   18
 10
420.67331481626627
 20
551.84170516598942
 40
1.7254760742187498
  0
CIRCLE
  8
_1-d_
  6
CONTINUOUS
 62
   18
 10
420.67331481626638
 20
759.84170516598931
 40
1.7254760742187498
  0
LINE
  8
_1-d_
  6
CONTINUOUS
 62
   18
 10
420.67331481626638
 20
764.6117051482197
 11
420.67331481626638
 21
759.84170516598931
  0
TEXT
  8
_1-d_
 62
    4
 10
371.23656862918745
 20
775.30190589891356
 40
7.5
 41
1
 50
0
  1
58
  0
LINE
  8
_1-d_
  6
CONTINUOUS
 62
   18
 10
391.47331481626532
 20
764.61170514821879
 11
391.47331481626532
 21
790.61170512586705
  0
TEXT
  8
_1-d_
 62
    4
 10
380.6257921660723
 20
787.64992682607556
 40
7.5
 41
1
 50
0
  1
105
  0
CIRCLE
  8
_1-d_
  6
CONTINUOUS
 62
   18
 10
361.77331481626595
 20
759.84170516598931
 40
1.7254760742187498
  0
LINE
  8
_1-d_
  6
CONTINUOUS
 62
   18
 10
361.77331481626595
 20
764.6117051482197
 11
361.77331481626595
 21
759.84170516598931
  0
CIRCLE
  8
_1-d_
  6
CONTINUOUS
 62
   18
 10
361.77331481626595
 20
755.44170516598831
 40
1.7254760742187498
  0
LINE
  8
_1-d_
  6
CONTINUOUS
 62
   18
 10
361.77331481626595
 20
750.67170518375792
 11
361.77331481626595
 21
759.84170516598931
  0
CIRCLE
  8
_1-d_
  6
CONTINUOUS
 62
   18
 10
420.67331481626638
 20
732.04170516598833
 40
1.7254760742187498
  0
LINE
  8
_1-d_
  6
CONTINUOUS
 62
   18
 10
385.27331481626629
 20
730.0874997750733
 11
385.27331481626629
 21
728.71723855063874
  0
LINE
  8
_1-d_
  6
CONTINUOUS
 62
   18
 10
385.27331481626629
 20
728.71723855063874
 11
380.97331481626628
 21
728.71723855063874
  0
LINE
  8
_1-d_
  6
CONTINUOUS
 62
   18
 10
380.97331481626628
 20
728.71723855063874
 11
371.97331481626628
 21
728.71723855063874
  0
INSERT
  2
-000-_DOTSMALL
  8
_1-d_
 10
385.27331481626629
 20
728.71723855063874
 41
0.6666666666666666
 42
0.6666666666666666
 50
0
  0
INSERT
  2
-000-_DOTSMALL
  8
_1-d_
 10
385.27331481626629
 20
728.71723855063874
 41
0.6666666666666666
 42
-0.6666666666666666
 50
0
  0
TEXT
  8
_1-d_
 62
    4
 10
372.01897718138872
 20
729.11398227388577
 40
6
 41
1
 50
0
  1
43
  0
TEXT
  8
_1-d_
 62
    4
 10
420.17621368118535
 20
739.82262619343635
 40
7.5
 41
1
 50
90
  1
278
  0
CIRCLE
  8
_1-d_
  6
CONTINUOUS
 62
   18
 10
420.67331481626627
 20
685.64170516598847
 40
1.7254760742187498
  0
TEXT
  8
_1-d_
 62
    4
 10
420.15764977258152
 20
700.39551523943737
 40
7.5
 41
1
 50
90
  1
464
  0
CIRCLE
  8
_1-d_
  6
CONTINUOUS
 62
   18
 10
420.67331481626627
 20
631.84170516598851
 40
1.7254760742187498
  0
TEXT
  8
_1-d_
 62
    4
 10
420.37331481626626
 20
654.21670516598931
 40
7.5
 41
1
 50
90
  1
538
  0
CIRCLE
  8
_1-d_
  6
CONTINUOUS
 62
   18
 10
420.67331481626627
 20
578.04170516598856
 40
1.7254760742187498
  0
LINE
  8
_1-d_
  6
CONTINUOUS
 62
   18
 10
385.27331481626652
 20
575.28466914107457
 11
380.97331481626662
 21
575.28466914107457
  0
LINE
  8
_1-d_
  6
CONTINUOUS
 62
   18
 10
380.97331481626662
 20
575.28466914107457
 11
371.97331481626662
 21
575.28466914107457
  0
INSERT
  2
-000-_DOTSMALL
  8
_1-d_
 10
385.27331481626652
 20
575.28466914107457
 41
0.6666666666666666
 42
0.6666666666666666
 50
0
  0
INSERT
  2
-000-_DOTSMALL
  8
_1-d_
 10
385.27331481626652
 20
575.28466914107457
 41
0.6666666666666666
 42
-0.6666666666666666
 50
0
  0
LINE
  8
_1-d_
  6
CONTINUOUS
 62
   18
 10
385.27331481626652
 20
576.65493036550924
 11
385.27331481626652
 21
575.28466914107457
  0
TEXT
  8
_1-d_
 62
    4
 10
372.38986759447073
 20
576.32397370104741
 40
6
 41
1
 50
0
  1
43
  0
TEXT
  8
_1-d_
 62
    4
 10
419.81982857033341
 20
560.39237142453965
 40
7.5
 41
1
 50
90
  1
262
  0
TEXT
  8
_1-d_
 62
    4
 10
419.79398798869943
 20
597.88911298695189
 40
7.5
 41
1
 50
90
  1
538
  0
LINE
  8
_1-d_
  6
CONTINUOUS
 62
   18
 10
420.67331481626627
 20
745.21170514821972
 11
420.67331481626627
 21
740.44170516598945
  0
LINE
  8
_1-d_
  6
CONTINUOUS
 62
   18
 10
420.67331481626638
 20
732.04170516598833
 11
420.67331481626638
 21
727.27170518375806
  0
CIRCLE
  8
_1-d_
  6
CONTINUOUS
 62
   18
 10
420.67331481626627
 20
732.04170516598833
 40
1.7254760742187498
  0
LINE
  8
_1-d_
  6
CONTINUOUS
 62
   18
 10
420.67331481626627
 20
685.64170516598847
 11
420.67331481626627
 21
680.87170518375808
  0
LINE
  8
_1-d_
  6
CONTINUOUS
 62
   18
 10
420.67331481626627
 20
690.41170514821874
 11
420.67331481626627
 21
685.64170516598847
  0
CIRCLE
  8
_1-d_
  6
CONTINUOUS
 62
   18
 10
420.67331481626627
 20
685.64170516598847
 40
1.7254760742187498
  0
LINE
  8
_1-d_
  6
CONTINUOUS
 62
   18
 10
420.67331481626627
 20
636.61170514821879
 11
420.67331481626627
 21
631.84170516598851
  0
CIRCLE
  8
_1-d_
  6
CONTINUOUS
 62
   18
 10
420.67331481626627
 20
631.84170516598851
 40
1.7254760742187498
  0
CIRCLE
  8
_1-d_
  6
CONTINUOUS
 62
   18
 10
420.67331481626627
 20
578.04170516598856
 40
1.7254760742187498
  0
LINE
  8
_1-d_
  6
CONTINUOUS
 62
   18
 10
396.24331479849661
 20
551.84170516598942
 11
426.67331481626627
 21
551.84170516598942
  0
LINE
  8
_1-d_
  6
CONTINUOUS
 62
   18
 10
396.24331479849661
 20
759.84170516598931
 11
426.67331481626627
 21
759.84170516598931
  0
LINE
  8
_1-d_
  6
CONTINUOUS
 62
   18
 10
402.94331479849649
 20
732.04170516598833
 11
426.67331481626627
 21
732.04170516598833
  0
LINE
  8
_1-d_
  6
CONTINUOUS
 62
   18
 10
402.94331479849649
 20
685.64170516598847
 11
426.67331481626627
 21
685.64170516598847
  0
LINE
  8
_1-d_
  6
CONTINUOUS
 62
   18
 10
402.94331479849649
 20
631.84170516598851
 11
426.67331481626627
 21
631.84170516598851
  0
LINE
  8
_1-d_
  6
CONTINUOUS
 62
   18
 10
402.94331479849649
 20
578.04170516598856
 11
426.67331481626627
 21
578.04170516598856
  0
LINE
  8
_1-d_
  6
CONTINUOUS
 62
   18
 10
361.77331481626595
 20
554.4667051659867
 11
361.77331481626595
 21
559.23670514821708
  0
LINE
  8
_1-d_
  6
CONTINUOUS
 62
   18
 10
361.77331481626595
 20
554.4667051659867
 11
361.77331481626595
 21
547.07170518375892
  0
CIRCLE
  8
_1-d_
  6
CONTINUOUS
 62
   18
 10
361.77331481626595
 20
551.84170516598942
 40
1.7254760742187498
  0
CIRCLE
  8
_1-d_
  6
CONTINUOUS
 62
   18
 10
361.77331481626595
 20
554.4667051659867
 40
1.7254760742187498
  0
LINE
  8
_1-d_
  6
CONTINUOUS
 62
   18
 10
376.20331483403572
 20
551.84170516598942
 11
355.77331481626595
 21
551.84170516598942
  0
LINE
  8
_1-d_
  6
CONTINUOUS
 62
   18
 10
370.39667799430845
 20
554.4667051659867
 11
355.77331481626595
 21
554.4667051659867
  0
LINE
  8
_1-d_
  6
CONTINUOUS
 62
   18
 10
369.50331483403579
 20
755.44170516598831
 11
355.77331481626595
 21
755.44170516598831
  0
LINE
  8
_1-d_
  6
CONTINUOUS
 62
   18
 10
376.20331483403572
 20
759.84170516598931
 11
355.77331481626595
 21
759.84170516598931
  0
TEXT
  8
_1-d_
 62
    4
 10
358.17927667409799
 20
754.54136425322872
 40
7.5
 41
1
 50
90
  1
44
  0
TEXT
  8
_1-d_
 62
    4
 10
355.40004011739899
 20
549.70080008496484
 40
7.5
 41
1
 50
90
  1
25
  0
LINE
  8
_0-1_躯体
  6
CONTINUOUS
 62
    7
 10
1044.5923997133432
 20
538.86258848786667
 11
1044.5923997133432
 21
659.83456179247355
  0
LINE
  8
_0-1_躯体
  6
CONTINUOUS
 62
    7
 10
983.1398184870875
 20
260.37296212448547
 11
983.48407710757635
 21
259.63334849033902
  0
TEXT
  8
_0-d_寸法
 62
    4
 10
1068.2099390640972
 20
675.5919943148225
 40
9
 41
1
 50
0
  1
10
  0
TEXT
  8
_0-d_寸法
 62
    4
 10
1041.8813651927665
 20
675.39039990525725
 40
9
 41
1
 50
0
  1
12.5
  0
TEXT
  8
_0-d_寸法
 62
    4
 10
910.38155314150185
 20
675.21555807224684
 40
9
 41
1
 50
0
  1
14
  0
TEXT
  8
_0-d_寸法
 62
    4
 10
925.34857241733698
 20
674.97608576383357
 40
9
 41
1
 50
0
  1
18
  0
TEXT
  8
_0-d_寸法
 62
    4
 10
982.52506379788326
 20
674.63703115556632
 40
9
 41
1
 50
0
  1
105
  0
ARC
  8
_0-1_躯体
  6
CONTINUOUS
 62
    7
 10
991.59239971334307
 20
274.38143014910645
 40
5.0661735495270879
 50
9.2707244708887924
 51
170.72927552911113
  0
ARC
  8
_0-1_躯体
  6
CONTINUOUS
 62
    7
 10
951.42082683808928
 20
260.38143014910645
 40
5.0661735495270879
 50
9.2707244708887924
 51
170.72927552911113
  0
LINE
  8
_0-1_躯体
  6
CONTINUOUS
 62
    7
 10
953.79222877192399
 20
250.97058125729501
 11
967.74222877192426
 21
250.97058125729501
  0
LINE
  8
_0-1_躯体
  6
CONTINUOUS
 62
    7
 10
967.74222877192426
 20
250.97058125729501
 11
967.74222877192426
 21
252.60302806580557
  0
LINE
  8
_0-1_躯体
  6
CONTINUOUS
 62
    7
 10
967.74222877192426
 20
252.60302806580557
 11
954.34222877192417
 21
251.03494295942258
  0
LINE
  8
_0-1_躯体
  6
CONTINUOUS
 62
    7
 10
939.5923997133433
 20
250.69758848786662
 11
986.59239971334318
 21
256.19758848786665
  0
LINE
  8
_0-1_躯体
  6
CONTINUOUS
 62
    7
 10
949.59239971334307
 20
250.35756569168612
 11
988.09239971334318
 21
254.86288484062234
  0
LINE
  8
_0-1_躯体
  6
CONTINUOUS
 62
    7
 10
939.76674196758563
 20
249.20775467888481
 11
948.09239971334307
 21
250.18203377679262
  0
LINE
  8
_0-1_躯体
  6
CONTINUOUS
 62
    7
 10
939.76674196758563
 20
249.20775467888481
 11
939.5923997133433
 21
250.69758848786662
  0
LINE
  8
_0-1_躯体
  6
CONTINUOUS
 62
    7
 10
986.59239971334318
 20
256.19758848786665
 11
1034.5923997133432
 21
256.19758848786665
  0
LINE
  8
_0-1_躯体
  6
CONTINUOUS
 62
    7
 10
988.09239971334318
 20
254.69758848786665
 11
1033.0923997133432
 21
254.69758848786665
  0
LINE
  8
_0-1_躯体
  6
CONTINUOUS
 62
    7
 10
1034.5923997133432
 20
256.19758848786665
 11
1034.5923997133432
 21
246.19758848786662
  0
LINE
  8
_0-1_躯体
  6
CONTINUOUS
 62
    7
 10
1033.0923997133432
 20
254.69758848786665
 11
1033.0923997133432
 21
247.69758848786662
  0
LINE
  8
_0-1_躯体
  6
CONTINUOUS
 62
    7
 10
1031.3422287719241
 20
247.69758848786662
 11
1031.3422287719241
 21
246.19758848786662
  0
LINE
  8
_0-1_躯体
  6
CONTINUOUS
 62
    7
 10
1034.5923997133432
 20
246.19758848786662
 11
1031.3422287719241
 21
246.19758848786662
  0
LINE
  8
_0-1_躯体
  6
CONTINUOUS
 62
    7
 10
1033.0923997133432
 20
247.69758848786662
 11
1031.3422287719241
 21
247.69758848786662
  0
LINE
  8
_0-1_躯体
  6
CONTINUOUS
 62
    7
 10
988.09239971334318
 20
261.1975884878666
 11
986.59239971334318
 21
261.1975884878666
  0
LINE
  8
_0-1_躯体
  6
CONTINUOUS
 62
    7
 10
986.59239971334318
 20
256.19758848786665
 11
986.59239971334318
 21
261.1975884878666
  0
LINE
  8
_0-1_躯体
  6
CONTINUOUS
 62
    7
 10
988.09239971334318
 20
254.86288484062226
 11
988.09239971334318
 21
261.1975884878666
  0
LINE
  8
_0-1_躯体
  6
CONTINUOUS
 62
    7
 10
986.59239971334318
 20
247.69758848786662
 11
986.59239971334318
 21
256.19758848786665
  0
LINE
  8
_0-1_躯体
  6
CONTINUOUS
 62
    7
 10
988.09239971334318
 20
247.69758848786662
 11
988.09239971334318
 21
254.69758848786665
  0
LINE
  8
_0-1_躯体
  6
CONTINUOUS
 62
    7
 10
985.09239971334318
 20
247.69758848786662
 11
985.09239971334318
 21
246.19758848786662
  0
LINE
  8
_0-1_躯体
  6
CONTINUOUS
 62
    7
 10
989.59239971334318
 20
246.19758848786662
 11
985.09239971334318
 21
246.19758848786662
  0
LINE
  8
_0-1_躯体
  6
CONTINUOUS
 62
    7
 10
986.59239971334318
 20
247.69758848786662
 11
985.09239971334318
 21
247.69758848786662
  0
LINE
  8
_0-1_躯体
  6
CONTINUOUS
 62
    7
 10
989.59239971334318
 20
247.69758848786662
 11
988.09239971334318
 21
247.69758848786662
  0
LINE
  8
_0-1_躯体
  6
CONTINUOUS
 62
    7
 10
989.59239971334318
 20
247.69758848786662
 11
989.59239971334318
 21
246.19758848786662
  0
LINE
  8
_0-1_躯体
  6
CONTINUOUS
 62
    7
 10
949.59239971334307
 20
250.35756569168612
 11
949.59239971334307
 21
246.19758848786662
  0
LINE
  8
_0-1_躯体
  6
CONTINUOUS
 62
    7
 10
948.09239971334307
 20
250.18203377679262
 11
948.09239971334307
 21
247.69758848786662
  0
LINE
  8
_0-1_躯体
  6
CONTINUOUS
 62
    7
 10
939.5923997133433
 20
247.69758848786662
 11
939.5923997133433
 21
246.19758848786662
  0
LINE
  8
_0-1_躯体
  6
CONTINUOUS
 62
    7
 10
949.59239971334307
 20
246.19758848786662
 11
939.5923997133433
 21
246.19758848786662
  0
LINE
  8
_0-1_躯体
  6
CONTINUOUS
 62
    7
 10
948.09239971334307
 20
247.69758848786662
 11
939.5923997133433
 21
247.69758848786662
  0
LINE
  8
_0-1_躯体
  6
CONTINUOUS
 62
    7
 10
939.5923997133433
 20
250.69758848786662
 11
939.5923997133433
 21
249.17793037070501
  0
LINE
  8
_0-1_躯体
  6
CONTINUOUS
 62
    7
 10
939.5923997133433
 20
249.17793037070501
 11
948.09239971334307
 21
249.17793037070501
  0
LINE
  8
_0-1_躯体
  6
CONTINUOUS
 62
    7
 10
948.09239971334307
 20
250.18203377679262
 11
939.5923997133433
 21
250.69758848786662
  0
LINE
  8
_0-1_躯体
  6
CONTINUOUS
 62
    7
 10
984.09222877192406
 20
488.61258848786667
 11
982.3423997133433
 21
488.61258848786667
  0
LINE
  8
_0-1_躯体
  6
CONTINUOUS
 62
    7
 10
985.84239971334318
 20
509.06293037070498
 11
985.84239971334318
 21
497.36258848786667
  0
LINE
  8
_0-1_躯体
  6
CONTINUOUS
 62
    7
 10
987.5923997133433
 20
496.11258848786667
 11
987.09239971334307
 21
496.11258848786667
  0
LINE
  8
_0-1_躯体
  6
CONTINUOUS
 62
    7
 10
987.5923997133433
 20
493.61258848786667
 11
982.3423997133433
 21
493.61258848786667
  0
LINE
  8
_0-1_躯体
  6
CONTINUOUS
 62
    7
 10
983.88577711359687
 20
509.1368844203455
 11
983.89632972040386
 21
509.15250792890936
  0
LINE
  8
_0-1_躯体
  6
CONTINUOUS
 62
    7
 10
983.48407710757635
 20
508.42682848539437
 11
983.88577711359687
 21
509.1368844203455
  0
LINE
  8
_0-1_躯体
  6
CONTINUOUS
 62
    7
 10
983.1398184870875
 20
507.68721485124763
 11
983.48407710757635
 21
508.42682848539437
  0
LINE
  8
_0-1_躯体
  6
CONTINUOUS
 62
    7
 10
982.85515986746384
 20
506.92268113984568
 11
983.1398184870875
 21
507.68721485124763
  0
LINE
  8
_0-1_躯体
  6
CONTINUOUS
 62
    7
 10
982.63188615233389
 20
506.1380212302488
 11
982.85515986746384
 21
506.92268113984568
  0
LINE
  8
_0-1_躯体
  6
CONTINUOUS
 62
    7
 10
982.47139734168729
 20
505.33815519943266
 11
982.63188615233389
 21
506.1380212302488
  0
LINE
  8
_0-1_躯体
  6
CONTINUOUS
 62
    7
 10
982.37469975341071
 20
504.52809847177849
 11
982.47139734168729
 21
505.33815519943266
  0
LINE
  8
_0-1_躯体
  6
CONTINUOUS
 62
    7
 10
982.3423997133433
 20
503.71293037070495
 11
982.37469975341071
 21
504.52809847177849
  0
ARC
  8
_0-1_躯体
  6
CONTINUOUS
 62
    7
 10
985.09239971334318
 20
509.06293037070498
 40
0.75
 50
0
 51
90
  0
ARC
  8
_0-1_躯体
  6
CONTINUOUS
 62
    7
 10
985.13935406600569
 20
508.31293037070498
 40
1.5
 50
90
 51
145.96367646253361
  0
ARC
  8
_0-1_躯体
  6
CONTINUOUS
 62
    7
 10
987.5923997133433
 20
494.86258848786656
 40
1.25
 50
0
 51
90
  0
ARC
  8
_0-1_躯体
  6
CONTINUOUS
 62
    7
 10
987.5923997133433
 20
494.86258848786656
 40
1.25
 50
270
 51
0
  0
ARC
  8
_0-1_躯体
  6
CONTINUOUS
 62
    7
 10
987.09239971334307
 20
497.36258848786667
 40
1.25
 50
180
 51
270
  0
LINE
  8
_0-1_躯体
  6
CONTINUOUS
 62
    7
 10
985.84239971334318
 20
258.99724660502841
 11
985.84239971334318
 21
270.69758848786671
  0
LINE
  8
_0-1_躯体
  6
CONTINUOUS
 62
    7
 10
987.5923997133433
 20
274.44758848786671
 11
982.3423997133433
 21
274.44758848786671
  0
LINE
  8
_0-1_躯体
  6
CONTINUOUS
 62
    7
 10
982.3423997133433
 20
279.44758848786665
 11
982.3423997133433
 21
264.34724660502843
  0
LINE
  8
_0-1_躯体
  6
CONTINUOUS
 62
    7
 10
984.14222877192401
 20
279.44758848786665
 11
982.3423997133433
 21
279.44758848786665
  0
LINE
  8
_0-1_躯体
  6
CONTINUOUS
 62
    7
 10
987.5923997133433
 20
271.94758848786665
 11
987.09239971334307
 21
271.94758848786665
  0
LINE
  8
_0-1_躯体
  6
CONTINUOUS
 62
    7
 10
983.88577711359687
 20
258.92329255538777
 11
983.89632972040386
 21
258.90766904682391
  0
LINE
  8
_0-1_躯体
  6
CONTINUOUS
 62
    7
 10
983.48407710757635
 20
259.63334849033902
 11
983.88577711359687
 21
258.92329255538777
  0
LINE
  8
_0-1_躯体
  6
CONTINUOUS
 62
    7
 10
982.85515986746384
 20
261.13749583588771
 11
983.1398184870875
 21
260.37296212448547
  0
LINE
  8
_0-1_躯体
  6
CONTINUOUS
 62
    7
 10
982.63188615233389
 20
261.92215574548447
 11
982.85515986746384
 21
261.13749583588771
  0
LINE
  8
_0-1_躯体
  6
CONTINUOUS
 62
    7
 10
982.47139734168729
 20
262.72202177630049
 11
982.63188615233389
 21
261.92215574548447
  0
LINE
  8
_0-1_躯体
  6
CONTINUOUS
 62
    7
 10
982.37469975341071
 20
263.53207850395489
 11
982.47139734168729
 21
262.72202177630049
  0
LINE
  8
_0-1_躯体
  6
CONTINUOUS
 62
    7
 10
982.3423997133433
 20
264.34724660502843
 11
982.37469975341071
 21
263.53207850395489
  0
ARC
  8
_0-1_躯体
  6
CONTINUOUS
 62
    7
 10
985.09239971334318
 20
258.99724660502841
 40
0.75
 50
270
 51
0
  0
ARC
  8
_0-1_躯体
  6
CONTINUOUS
 62
    7
 10
985.13935406600569
 20
259.74724660502841
 40
1.4999999999999281
 50
214.03632353747111
 51
270
  0
ARC
  8
_0-1_躯体
  6
CONTINUOUS
 62
    7
 10
987.5923997133433
 20
273.1975884878666
 40
1.25
 50
270
 51
0
  0
ARC
  8
_0-1_躯体
  6
CONTINUOUS
 62
    7
 10
987.5923997133433
 20
273.1975884878666
 40
1.25
 50
0
 51
90
  0
ARC
  8
_0-1_躯体
  6
CONTINUOUS
 62
    7
 10
987.09239971334307
 20
270.69758848786671
 40
1.25
 50
90
 51
180
  0
LINE
  8
_0-0_本体
  6
CONTINUOUS
 62
   18
 10
984.5923997133433
 20
511.86258848786667
 11
941.59239971334318
 21
511.86258848786667
  0
ARC
  8
_0-0_本体
  6
CONTINUOUS
 62
   18
 10
941.59239971334318
 20
513.86258848786667
 40
2.0000000000000036
 50
180.00000000000031
 51
270.00000000000034
  0
LINE
  8
_0-0_本体
  6
CONTINUOUS
 62
   18
 10
939.5923997133433
 20
513.86258848786667
 11
939.5923997133433
 21
538.86258848786667
  0
ARC
  8
_0-0_本体
  6
CONTINUOUS
 62
   18
 10
941.59239971334318
 20
538.86258848786667
 40
1.9999999999999762
 50
89.99999999999892
 51
179.99999999999892
  0
LINE
  8
_0-0_本体
  6
CONTINUOUS
 62
   18
 10
941.59239971334318
 20
540.86258848786656
 11
1042.5923997133432
 21
540.86258848786656
  0
ARC
  8
_0-0_本体
  6
CONTINUOUS
 62
   18
 10
1042.5923997133432
 20
538.86258848786667
 40
1.9999999999999762
 50
0.0000000000010559
 51
90.000000000001066
  0
LINE
  8
_0-0_本体
  6
CONTINUOUS
 62
   18
 10
1044.5923997133432
 20
538.86258848786667
 11
1044.5923997133432
 21
526.36258848786656
  0
LINE
  8
_0-0_本体
  6
CONTINUOUS
 62
   18
 10
1044.5923997133432
 20
526.36258848786656
 11
1044.5923997133432
 21
519.81258848786672
  0
LINE
  8
_0-0_本体
  6
CONTINUOUS
 62
   18
 10
1044.5923997133432
 20
519.81258848786672
 11
1044.5923997133432
 21
513.86258848786667
  0
LINE
  8
_0-0_本体
  6
CONTINUOUS
 62
   18
 10
1044.5923997133432
 20
513.86258848786667
 11
1044.5923997133432
 21
496.86258848786667
  0
LINE
  8
_0-0_本体
  6
CONTINUOUS
 62
   18
 10
1044.5923997133432
 20
496.86258848786667
 11
1034.5923997133432
 21
496.86258848786667
  0
LINE
  8
_0-0_本体
  6
CONTINUOUS
 62
   18
 10
1034.5923997133432
 20
496.86258848786667
 11
1030.5422287719241
 21
496.86258848786667
  0
LINE
  8
_0-0_本体
  6
CONTINUOUS
 62
   18
 10
1030.5422287719241
 20
496.86258848786667
 11
986.59239971334318
 21
496.86258848786667
  0
LINE
  8
_0-0_本体
  6
CONTINUOUS
 62
   18
 10
986.59239971334318
 20
496.86258848786667
 11
986.59239971334318
 21
503.05208848786651
  0
LINE
  8
_0-0_本体
  6
CONTINUOUS
 62
   18
 10
986.59239971334318
 20
503.05208848786651
 11
986.59239971334318
 21
506.86258848786656
  0
LINE
  8
_0-0_本体
  6
CONTINUOUS
 62
   18
 10
986.59239971334318
 20
506.86258848786656
 11
986.59239971334318
 21
511.86258848786667
  0
LINE
  8
_0-0_本体
  6
CONTINUOUS
 62
   18
 10
986.59239971334318
 20
511.86258848786667
 11
984.5923997133433
 21
511.86258848786667
  0
LINE
  8
_0-0_本体
  6
CONTINUOUS
 62
   18
 10
939.5923997133433
 20
506.03416136312046
 11
939.5923997133433
 21
449.06258848786661
  0
LINE
  8
_0-0_本体
  6
CONTINUOUS
 62
   18
 10
942.42082683808928
 20
508.86258848786667
 11
939.5923997133433
 21
506.03416136312046
  0
LINE
  8
_0-0_本体
  6
CONTINUOUS
 62
   18
 10
942.42082683808928
 20
508.86258848786667
 11
981.5923997133433
 21
506.86258848786656
  0
LINE
  8
_0-0_本体
  6
CONTINUOUS
 62
   18
 10
981.5923997133433
 20
506.86258848786656
 11
981.5923997133433
 21
487.86258848786667
  0
LINE
  8
_0-0_本体
  6
CONTINUOUS
 62
   18
 10
984.5923997133433
 20
487.86258848786667
 11
981.5923997133433
 21
487.86258848786667
  0
LINE
  8
_0-0_本体
  6
CONTINUOUS
 62
   18
 10
984.5923997133433
 20
492.86258848786667
 11
984.5923997133433
 21
487.86258848786667
  0
LINE
  8
_0-0_本体
  6
CONTINUOUS
 62
    7
 10
982.3423997133433
 20
488.61258848786667
 11
982.3423997133433
 21
503.71293037070495
  0
LINE
  8
_0-0_本体
  6
CONTINUOUS
 62
   18
 10
981.5923997133433
 20
261.1975884878666
 11
942.42082683808928
 21
261.1975884878666
  0
LINE
  8
_0-0_本体
  6
CONTINUOUS
 62
   18
 10
939.5923997133433
 20
264.02601561261292
 11
939.5923997133433
 21
318.99758848786666
  0
LINE
  8
_0-0_本体
  6
CONTINUOUS
 62
   18
 10
981.5923997133433
 20
261.1975884878666
 11
981.5923997133433
 21
280.19758848786665
  0
LINE
  8
_0-0_本体
  6
CONTINUOUS
 62
   18
 10
984.5923997133433
 20
280.19758848786665
 11
981.5923997133433
 21
280.19758848786665
  0
LINE
  8
_0-0_本体
  6
CONTINUOUS
 62
   18
 10
984.5923997133433
 20
275.19758848786671
 11
984.5923997133433
 21
280.19758848786665
  0
LINE
  8
_0-0_本体
  6
CONTINUOUS
 62
   18
 10
942.42082683808928
 20
261.1975884878666
 11
939.5923997133433
 21
264.02601561261292
  0
LINE
  8
_0-0_本体
  6
CONTINUOUS
 62
   18
 10
986.59239971334318
 20
271.19758848786665
 11
1042.5923997133432
 21
271.19758848786665
  0
ARC
  8
_0-0_本体
  6
CONTINUOUS
 62
   18
 10
1042.5923997133432
 20
269.19758848786671
 40
2.0000000000000142
 50
0
 51
90
  0
LINE
  8
_0-0_本体
  6
CONTINUOUS
 62
   18
 10
1044.5923997133432
 20
269.19758848786671
 11
1044.5923997133432
 21
246.19758848786662
  0
LINE
  8
_0-0_本体
  6
CONTINUOUS
 62
   18
 10
1044.5923997133432
 20
246.19758848786662
 11
1034.5923997133432
 21
246.19758848786662
  0
LINE
  8
_0-0_本体
  6
CONTINUOUS
 62
   18
 10
1034.5923997133432
 20
246.19758848786662
 11
1034.5923997133432
 21
256.19758848786665
  0
LINE
  8
_0-0_本体
  6
CONTINUOUS
 62
   18
 10
1034.5923997133432
 20
256.19758848786665
 11
988.09239971334318
 21
256.19758848786665
  0
LINE
  8
_0-0_本体
  6
CONTINUOUS
 62
   18
 10
988.09239971334318
 20
256.19758848786665
 11
988.09239971334318
 21
261.1975884878666
  0
LINE
  8
_0-0_本体
  6
CONTINUOUS
 62
   18
 10
988.09239971334318
 20
261.1975884878666
 11
986.59239971334318
 21
261.1975884878666
  0
LINE
  8
_0-0_本体
  6
CONTINUOUS
 62
   18
 10
986.59239971334318
 20
261.1975884878666
 11
986.59239971334318
 21
271.19758848786665
  0
LINE
  8
_0-7_ハッチ
  6
CONTINUOUS
 62
   18
 10
939.5923997133433
 20
532.04028339824436
 11
948.41470480296562
 21
540.86258848786656
  0
LINE
  8
_0-7_ハッチ
  6
CONTINUOUS
 62
   18
 10
946.35547316617283
 20
511.86258848786667
 11
975.35547316617306
 21
540.86258848786656
  0
LINE
  8
_0-7_ハッチ
  6
CONTINUOUS
 62
   18
 10
973.29624152938061
 20
511.86258848786667
 11
1002.2962415293805
 21
540.86258848786656
  0
LINE
  8
_0-7_ハッチ
  6
CONTINUOUS
 62
   18
 10
986.59239971334318
 20
498.21797830862187
 11
1029.237009892588
 21
540.86258848786656
  0
LINE
  8
_0-7_ハッチ
  6
CONTINUOUS
 62
   18
 10
1012.1777782557955
 20
496.86258848786667
 11
1044.5923997133432
 21
529.2772099454146
  0
LINE
  8
_0-7_ハッチ
  6
CONTINUOUS
 62
   18
 10
1039.1185466190029
 20
496.86258848786667
 11
1044.5923997133432
 21
502.3364415822071
  0
LINE
  8
_0-7_ハッチ
  6
CONTINUOUS
 62
   18
 10
988.09239971334318
 20
257.25106303975485
 11
1002.0389251614553
 21
271.19758848786665
  0
LINE
  8
_0-7_ハッチ
  6
CONTINUOUS
 62
   18
 10
1013.9796935246624
 20
256.19758848786665
 11
1028.9796935246627
 21
271.19758848786665
  0
LINE
  8
_0-7_ハッチ
  6
CONTINUOUS
 62
   18
 10
1034.5923997133432
 20
249.86952631334003
 11
1044.5923997133432
 21
259.86952631333997
  0
TEXT
  8
_0-d_寸法
 62
    4
 10
1133.9671963228413
 20
541.4522397388132
 40
9
 41
1
 50
90
  1
10
  0
TEXT
  8
_0-d_寸法
 62
    4
 10
1118.994593052925
 20
513.86028987394775
 40
10.500000000000171
 41
1
 50
90
  1
44
  0
LINE
  8
_0-d_寸法
  6
CONTINUOUS
 62
   18
 10
1083.5423997133435
 20
550.86258848786667
 11
1142.5423996909915
 21
550.86258848786667
  0
LINE
  8
_0-d_寸法
  6
CONTINUOUS
 62
   18
 10
1116.3123996955737
 20
540.86258848786656
 11
1142.5423996909915
 21
540.86258848786656
  0
LINE
  8
_0-d_寸法
  6
CONTINUOUS
 62
   18
 10
1136.5423997133432
 20
555.63258847009695
 11
1136.5423997133432
 21
550.86258848786667
  0
LINE
  8
_0-d_寸法
  6
CONTINUOUS
 62
   18
 10
1136.5423997133432
 20
540.86258848786656
 11
1136.5423997133432
 21
246.19758848786662
  0
CIRCLE
  8
_0-d_寸法
  6
CONTINUOUS
 62
   18
 10
1136.5423997133432
 20
550.86258848786667
 40
1.7254760742187489
  0
CIRCLE
  8
_0-d_寸法
  6
CONTINUOUS
 62
   18
 10
1136.5423997133432
 20
540.86258848786656
 40
1.7254760742187489
  0
LINE
  8
_0-d_寸法
  6
CONTINUOUS
 62
   18
 10
1136.5423997133432
 20
550.86258848786667
 11
1136.5423997133432
 21
540.86258848786656
  0
LINE
  8
_0-d_寸法
  6
CONTINUOUS
 62
   18
 10
1116.3123997133432
 20
540.86258848786656
 11
1084.0423997133432
 21
540.86258848786656
  0
CIRCLE
  8
_0-d_寸法
  6
CONTINUOUS
 62
   18
 10
1074.081641485297
 20
271.19758848786665
 40
1.7254760742187489
  0
LINE
  8
_0-d_寸法
  6
CONTINUOUS
 62
   18
 10
1074.081641485297
 20
266.20258848786671
 11
1074.081641485297
 21
242.02497437502282
  0
CIRCLE
  8
_0-d_寸法
  6
CONTINUOUS
 62
   18
 10
1074.081641485297
 20
246.19758848786662
 40
1.7254760742187489
  0
LINE
  8
_0-d_寸法
  6
CONTINUOUS
 62
   18
 10
1049.5423997133432
 20
246.19758848786662
 11
1142.5423996909915
 21
246.19758848786662
  0
LINE
  8
_0-d_寸法
  6
CONTINUOUS
 62
   18
 10
1136.5423997133432
 20
246.19758848786662
 11
1136.5423997133432
 21
241.42758850563638
  0
CIRCLE
  8
_0-d_寸法
  6
CONTINUOUS
 62
   18
 10
1136.5423997133432
 20
246.19758848786662
 40
1.7254760742187489
  0
TEXT
  8
_0-d_寸法
 62
    4
 10
1052.1082531913385
 20
452.11210572644535
 40
9
 41
1
 50
0
  1
23
  0
TEXT
  8
_0-d_寸法
 62
    4
 10
985.76871205578107
 20
452.00571286250926
 40
9
 41
1
 50
0
  1
105
  0
LINE
  8
_0-d_寸法
  6
CONTINUOUS
 62
   18
 10
899.59239971334318
 20
515.81258848786661
 11
899.59239971334318
 21
444.81258851021846
  0
LINE
  8
_0-d_寸法
  6
CONTINUOUS
 62
   18
 10
939.5923997133433
 20
456.04258850563633
 11
939.5923997133433
 21
444.81258851021846
  0
LINE
  8
_0-d_寸法
  6
CONTINUOUS
 62
   18
 10
894.82239973111302
 20
450.81258848786672
 11
899.59239971334318
 21
450.81258848786672
  0
LINE
  8
_0-d_寸法
  6
CONTINUOUS
 62
   18
 10
939.5923997133433
 20
450.81258848786672
 11
1044.5923997133432
 21
450.81258848786672
  0
CIRCLE
  8
_0-d_寸法
  6
CONTINUOUS
 62
   18
 10
899.59239971334318
 20
450.81258848786672
 40
1.7254760742187489
  0
CIRCLE
  8
_0-d_寸法
  6
CONTINUOUS
 62
   18
 10
939.5923997133433
 20
450.81258848786672
 40
1.7254760742187489
  0
LINE
  8
_0-d_寸法
  6
CONTINUOUS
 62
   18
 10
899.59239971334318
 20
450.81258848786672
 11
939.5923997133433
 21
450.81258848786672
  0
LINE
  8
_0-d_寸法
  6
CONTINUOUS
 62
   18
 10
1044.5923997133432
 20
451.04258850563633
 11
1044.5923997133432
 21
444.81258851021846
  0
CIRCLE
  8
_0-d_寸法
  6
CONTINUOUS
 62
   18
 10
1044.5923997133432
 20
450.81258848786672
 40
1.7254760742187489
  0
LINE
  8
_0-7_ハッチ
  6
CONTINUOUS
 62
   18
 10
940.57069449428013
 20
549.88429370692995
 11
941.54898927521697
 21
550.86258848786679
  0
LINE
  8
_0-7_ハッチ
  6
CONTINUOUS
 62
   18
 10
948.22639167649766
 20
550.46892307728217
 11
948.62005708708227
 21
550.86258848786679
  0
LINE
  8
_0-7_ハッチ
  6
CONTINUOUS
 62
   18
 10
942.1108295484064
 20
548.59600163630989
 11
944.37741639996295
 21
550.86258848786679
  0
LINE
  8
_0-7_ハッチ
  6
CONTINUOUS
 62
   18
 10
941.36650662084151
 20
549.26589227111822
 11
942.96320283758996
 21
550.86258848786679
  0
LINE
  8
_0-7_ハッチ
  6
CONTINUOUS
 62
   18
 10
942.5923997133433
 20
546.2491446765008
 11
947.20584352470928
 21
550.86258848786679
  0
LINE
  8
_0-7_ハッチ
  6
CONTINUOUS
 62
   18
 10
948.00601810720093
 20
540.86258023987261
 11
942.5923997133433
 21
546.27619863373025
  0
LINE
  8
_0-7_ハッチ
  6
CONTINUOUS
 62
   18
 10
942.5923997133433
 20
547.6633582388738
 11
945.79162996233629
 21
550.86258848786679
  0
LINE
  8
_0-7_ハッチ
  6
CONTINUOUS
 62
   18
 10
942.5923997133433
 20
544.83493111412781
 11
948.22639167649766
 21
550.46892307728217
  0
LINE
  8
_0-7_ハッチ
  6
CONTINUOUS
 62
   18
 10
946.59180454482794
 20
540.86258023987261
 11
942.5923997133433
 21
544.86198507135703
  0
LINE
  8
_0-7_ハッチ
  6
CONTINUOUS
 62
   18
 10
945.17759098245494
 20
540.86258023987261
 11
942.5923997133433
 21
543.44777150898403
  0
LINE
  8
_0-7_ハッチ
  6
CONTINUOUS
 62
   18
 10
943.76337742008161
 20
540.86258023987261
 11
942.67788444271525
 21
541.94807321723874
  0
LINE
  8
_0-7_ハッチ
  6
CONTINUOUS
 62
   18
 10
942.34916385770862
 20
540.86258023987261
 11
941.97077766152893
 21
541.2409664360523
  0
LINE
  8
_0-7_ハッチ
  6
CONTINUOUS
 62
   18
 10
942.5923997133433
 20
543.42071755175471
 11
950.03427064945561
 21
550.86258848786679
  0
LINE
  8
_0-7_ハッチ
  6
CONTINUOUS
 62
   18
 10
942.5923997133433
 20
542.00650398938149
 11
951.4484842118286
 21
550.86258848786679
  0
LINE
  8
_0-7_ハッチ
  6
CONTINUOUS
 62
   18
 10
951.5923997133433
 20
544.34726644559566
 11
945.07707767107252
 21
550.86258848786679
  0
LINE
  8
_0-7_ハッチ
  6
CONTINUOUS
 62
   18
 10
951.5923997133433
 20
545.76148000796866
 11
946.49129123344551
 21
550.86258848786679
  0
LINE
  8
_0-7_ハッチ
  6
CONTINUOUS
 62
   18
 10
951.5923997133433
 20
541.51883932084957
 11
942.24865054632619
 21
550.86258848786679
  0
LINE
  8
_0-7_ハッチ
  6
CONTINUOUS
 62
   18
 10
944.27690308858053
 20
540.86258023987261
 11
951.5923997133433
 21
548.17807686463516
  0
LINE
  8
_0-7_ハッチ
  6
CONTINUOUS
 62
   18
 10
942.86268952620753
 20
540.86258023987261
 11
951.5923997133433
 21
549.59229042700838
  0
LINE
  8
_0-7_ハッチ
  6
CONTINUOUS
 62
   18
 10
945.69111665095386
 20
540.86258023987261
 11
951.5923997133433
 21
546.76386330226217
  0
LINE
  8
_0-7_ハッチ
  6
CONTINUOUS
 62
   18
 10
947.10533021332651
 20
540.86258023987261
 11
951.5923997133433
 21
545.34964973988906
  0
LINE
  8
_0-7_ハッチ
  6
CONTINUOUS
 62
   18
 10
949.42022342157998
 20
540.86258848786667
 11
942.5923997133433
 21
547.69041219610335
  0
LINE
  8
_0-7_ハッチ
  6
CONTINUOUS
 62
   18
 10
950.83443698395297
 20
540.86258848786667
 11
940.8344369839532
 21
550.86258848786679
  0
LINE
  8
_0-7_ハッチ
  6
CONTINUOUS
 62
   18
 10
951.5923997133433
 20
550.00412069508764
 11
950.73393192056449
 21
550.86258848786679
  0
LINE
  8
_0-7_ハッチ
  6
CONTINUOUS
 62
   18
 10
951.5923997133433
 20
548.58990713271464
 11
949.31971835819115
 21
550.86258848786679
  0
LINE
  8
_0-7_ハッチ
  6
CONTINUOUS
 62
   18
 10
951.5923997133433
 20
547.17569357034165
 11
947.9055047958185
 21
550.86258848786679
  0
LINE
  8
_0-7_ハッチ
  6
CONTINUOUS
 62
   18
 10
951.5923997133433
 20
542.93305288322267
 11
943.66286410869918
 21
550.86258848786679
  0
LINE
  8
_0-7_ハッチ
  6
CONTINUOUS
 62
   18
 10
951.34797914844046
 20
540.86258848786667
 11
951.5923997133433
 21
541.10700905276951
  0
LINE
  8
_0-7_ハッチ
  6
CONTINUOUS
 62
   18
 10
961.95457261824447
 20
540.86258023987261
 11
971.95458086623819
 21
550.86258848786679
  0
LINE
  8
_0-7_ハッチ
  6
CONTINUOUS
 62
   18
 10
964.07589296180379
 20
540.86258023987261
 11
974.07590120979819
 21
550.86258848786679
  0
LINE
  8
_0-7_ハッチ
  6
CONTINUOUS
 62
   18
 10
966.19721330536345
 20
540.86258023987261
 11
976.19722155335751
 21
550.86258848786679
  0
LINE
  8
_0-7_ハッチ
  6
CONTINUOUS
 62
   18
 10
968.31853364892311
 20
540.86258023987261
 11
978.31854189691717
 21
550.86258848786679
  0
LINE
  8
_0-7_ハッチ
  6
CONTINUOUS
 62
   18
 10
970.43985399248277
 20
540.86258023987261
 11
980.43986224047683
 21
550.86258848786679
  0
LINE
  8
_0-7_ハッチ
  6
CONTINUOUS
 62
   18
 10
961.95457261824447
 20
550.86258848786679
 11
971.95457261824424
 21
540.86258848786667
  0
LINE
  8
_0-7_ハッチ
  6
CONTINUOUS
 62
   18
 10
964.07589296180379
 20
550.86258848786679
 11
974.07589296180424
 21
540.86258848786667
  0
LINE
  8
_0-7_ハッチ
  6
CONTINUOUS
 62
   18
 10
966.19721330536345
 20
550.86258848786679
 11
976.19721330536356
 21
540.86258848786667
  0
LINE
  8
_0-7_ハッチ
  6
CONTINUOUS
 62
   18
 10
968.31853364892311
 20
550.86258848786679
 11
978.31853364892322
 21
540.86258848786667
  0
LINE
  8
_0-7_ハッチ
  6
CONTINUOUS
 62
   18
 10
970.43985399248277
 20
550.86258848786679
 11
980.43985399248288
 21
540.86258848786667
  0
LINE
  8
_0-7_ハッチ
  6
CONTINUOUS
 62
   18
 10
972.56117433604243
 20
540.86258023987261
 11
982.56118258403649
 21
550.86258848786679
  0
LINE
  8
_0-7_ハッチ
  6
CONTINUOUS
 62
   18
 10
972.56117433604243
 20
550.86258848786679
 11
982.56118258403649
 21
540.86258023987261
  0
LINE
  8
_0-7_ハッチ
  6
CONTINUOUS
 62
   18
 10
974.68249467960209
 20
550.86258848786679
 11
984.68250292759615
 21
540.86258023987261
  0
LINE
  8
_0-7_ハッチ
  6
CONTINUOUS
 62
   18
 10
974.68249467960209
 20
540.86258023987261
 11
984.68250292759615
 21
550.86258848786679
  0
LINE
  8
_0-7_ハッチ
  6
CONTINUOUS
 62
   18
 10
976.80381502316175
 20
540.86258023987261
 11
986.80382327115581
 21
550.86258848786679
  0
LINE
  8
_0-7_ハッチ
  6
CONTINUOUS
 62
   18
 10
978.92513536672141
 20
540.86258023987261
 11
988.92514361471547
 21
550.86258848786679
  0
LINE
  8
_0-7_ハッチ
  6
CONTINUOUS
 62
   18
 10
981.04645571028107
 20
540.86258023987261
 11
991.04646395827513
 21
550.86258848786679
  0
LINE
  8
_0-7_ハッチ
  6
CONTINUOUS
 62
   18
 10
983.16777605384038
 20
540.86258023987261
 11
993.16778430183479
 21
550.86258848786679
  0
LINE
  8
_0-7_ハッチ
  6
CONTINUOUS
 62
   18
 10
985.28909639740004
 20
540.86258023987261
 11
995.2891046453941
 21
550.86258848786679
  0
LINE
  8
_0-7_ハッチ
  6
CONTINUOUS
 62
   18
 10
976.80381502316175
 20
550.86258848786679
 11
986.80381502316152
 21
540.86258848786667
  0
LINE
  8
_0-7_ハッチ
  6
CONTINUOUS
 62
   18
 10
978.92513536672141
 20
550.86258848786679
 11
988.92513536672152
 21
540.86258848786667
  0
LINE
  8
_0-7_ハッチ
  6
CONTINUOUS
 62
   18
 10
981.04645571028107
 20
550.86258848786679
 11
991.04645571028118
 21
540.86258848786667
  0
LINE
  8
_0-7_ハッチ
  6
CONTINUOUS
 62
   18
 10
983.16777605384038
 20
550.86258848786679
 11
993.1677760538405
 21
540.86258848786667
  0
LINE
  8
_0-7_ハッチ
  6
CONTINUOUS
 62
   18
 10
985.28909639740004
 20
550.86258848786679
 11
995.28909639740016
 21
540.86258848786667
  0
LINE
  8
_0-7_ハッチ
  6
CONTINUOUS
 62
   18
 10
987.4104167409597
 20
540.86258023987261
 11
997.41042498895376
 21
550.86258848786679
  0
LINE
  8
_0-7_ハッチ
  6
CONTINUOUS
 62
   18
 10
987.4104167409597
 20
550.86258848786679
 11
997.41042498895376
 21
540.86258023987261
  0
LINE
  8
_0-7_ハッチ
  6
CONTINUOUS
 62
   18
 10
989.53173708451936
 20
550.86258848786679
 11
999.53174533251342
 21
540.86258023987261
  0
LINE
  8
_0-7_ハッチ
  6
CONTINUOUS
 62
   18
 10
989.53173708451936
 20
540.86258023987261
 11
999.53174533251342
 21
550.86258848786679
  0
LINE
  8
_0-7_ハッチ
  6
CONTINUOUS
 62
   18
 10
991.65305742807902
 20
540.86258023987261
 11
1001.6530656760731
 21
550.86258848786679
  0
LINE
  8
_0-7_ハッチ
  6
CONTINUOUS
 62
   18
 10
993.77437777163868
 20
540.86258023987261
 11
1003.7743860196327
 21
550.86258848786679
  0
LINE
  8
_0-7_ハッチ
  6
CONTINUOUS
 62
   18
 10
995.89569811519834
 20
540.86258023987261
 11
1005.8957063631924
 21
550.86258848786679
  0
LINE
  8
_0-7_ハッチ
  6
CONTINUOUS
 62
   18
 10
998.017018458758
 20
540.86258023987261
 11
1008.0170267067521
 21
550.86258848786679
  0
LINE
  8
_0-7_ハッチ
  6
CONTINUOUS
 62
   18
 10
1000.1383388023177
 20
540.86258023987261
 11
1010.1383470503117
 21
550.86258848786679
  0
LINE
  8
_0-7_ハッチ
  6
CONTINUOUS
 62
   18
 10
991.65305742807902
 20
550.86258848786679
 11
1001.6530574280791
 21
540.86258848786667
  0
LINE
  8
_0-7_ハッチ
  6
CONTINUOUS
 62
   18
 10
993.77437777163868
 20
550.86258848786679
 11
1003.7743777716388
 21
540.86258848786667
  0
LINE
  8
_0-7_ハッチ
  6
CONTINUOUS
 62
   18
 10
995.89569811519834
 20
550.86258848786679
 11
1005.8956981151985
 21
540.86258848786667
  0
LINE
  8
_0-7_ハッチ
  6
CONTINUOUS
 62
   18
 10
998.017018458758
 20
550.86258848786679
 11
1008.0170184587581
 21
540.86258848786667
  0
LINE
  8
_0-7_ハッチ
  6
CONTINUOUS
 62
   18
 10
1000.1383388023177
 20
550.86258848786679
 11
1010.1383388023174
 21
540.86258848786667
  0
LINE
  8
_0-7_ハッチ
  6
CONTINUOUS
 62
   18
 10
1002.259659145877
 20
540.86258023987261
 11
1012.2596673938714
 21
550.86258848786679
  0
LINE
  8
_0-7_ハッチ
  6
CONTINUOUS
 62
   18
 10
1002.259659145877
 20
550.86258848786679
 11
1012.2596673938714
 21
540.86258023987261
  0
LINE
  8
_0-7_ハッチ
  6
CONTINUOUS
 62
   18
 10
1004.380979489437
 20
550.86258848786679
 11
1014.380987737431
 21
540.86258023987261
  0
LINE
  8
_0-7_ハッチ
  6
CONTINUOUS
 62
   18
 10
1004.380979489437
 20
540.86258023987261
 11
1014.380987737431
 21
550.86258848786679
  0
LINE
  8
_0-7_ハッチ
  6
CONTINUOUS
 62
   18
 10
1006.5022998329963
 20
540.86258023987261
 11
1016.5023080809907
 21
550.86258848786679
  0
LINE
  8
_0-7_ハッチ
  6
CONTINUOUS
 62
   18
 10
1008.6236201765563
 20
540.86258023987261
 11
1018.6236284245504
 21
550.86258848786679
  0
LINE
  8
_0-7_ハッチ
  6
CONTINUOUS
 62
   18
 10
1010.7449405201156
 20
540.86258023987261
 11
1020.74494876811
 21
550.86258848786679
  0
LINE
  8
_0-7_ハッチ
  6
CONTINUOUS
 62
   18
 10
1012.8662608636753
 20
540.86258023987261
 11
1022.8662691116693
 21
550.86258848786679
  0
LINE
  8
_0-7_ハッチ
  6
CONTINUOUS
 62
   18
 10
1014.9875812072349
 20
540.86258023987261
 11
1024.987589455229
 21
550.86258848786679
  0
LINE
  8
_0-7_ハッチ
  6
CONTINUOUS
 62
   18
 10
1006.5022998329963
 20
550.86258848786679
 11
1016.5022998329964
 21
540.86258848786667
  0
LINE
  8
_0-7_ハッチ
  6
CONTINUOUS
 62
   18
 10
1008.6236201765563
 20
550.86258848786679
 11
1018.6236201765561
 21
540.86258848786667
  0
LINE
  8
_0-7_ハッチ
  6
CONTINUOUS
 62
   18
 10
1010.7449405201156
 20
550.86258848786679
 11
1020.7449405201161
 21
540.86258848786667
  0
LINE
  8
_0-7_ハッチ
  6
CONTINUOUS
 62
   18
 10
1012.8662608636753
 20
550.86258848786679
 11
1022.8662608636754
 21
540.86258848786667
  0
LINE
  8
_0-7_ハッチ
  6
CONTINUOUS
 62
   18
 10
1014.9875812072349
 20
550.86258848786679
 11
1024.9875812072346
 21
540.86258848786667
  0
LINE
  8
_0-7_ハッチ
  6
CONTINUOUS
 62
   18
 10
1017.0636373515235
 20
540.86258023987261
 11
1027.0636455995177
 21
550.86258848786667
  0
LINE
  8
_0-7_ハッチ
  6
CONTINUOUS
 62
   18
 10
1017.0636373515235
 20
550.86258848786679
 11
1027.0636455995177
 21
540.86258023987261
  0
LINE
  8
_0-7_ハッチ
  6
CONTINUOUS
 62
   18
 10
1019.1849576950832
 20
550.86258848786679
 11
1029.1849659430773
 21
540.86258023987261
  0
LINE
  8
_0-7_ハッチ
  6
CONTINUOUS
 62
   18
 10
1019.1849576950832
 20
540.86258023987261
 11
1029.1849659430773
 21
550.86258848786667
  0
LINE
  8
_0-7_ハッチ
  6
CONTINUOUS
 62
   18
 10
1021.3062780386429
 20
540.86258023987261
 11
1031.3062862866368
 21
550.86258848786667
  0
LINE
  8
_0-7_ハッチ
  6
CONTINUOUS
 62
   18
 10
1021.3062780386429
 20
550.86258848786679
 11
1031.3062780386431
 21
540.86258848786667
  0
LINE
  8
_0-7_ハッチ
  6
CONTINUOUS
 62
   18
 10
949.93376558606712
 20
540.86258848786667
 11
951.5923997133433
 21
542.52122261514273
  0
LINE
  8
_0-7_ハッチ
  6
CONTINUOUS
 62
   18
 10
948.51955202369413
 20
540.86258848786667
 11
951.5923997133433
 21
543.93543617751584
  0
LINE
  8
_0-d_寸法
  6
CONTINUOUS
 62
   18
 10
1120.5423997356947
 20
496.86258848786673
 11
1120.5423997356947
 21
492.09258850563629
  0
CIRCLE
  8
_0-d_寸法
  6
CONTINUOUS
 62
   18
 10
1120.5423997356947
 20
496.86258848786673
 40
1.7254760742187489
  0
LINE
  8
_0-d_寸法
  6
CONTINUOUS
 62
   18
 10
1120.5423997356947
 20
545.63258847009706
 11
1120.5423997356947
 21
540.86258848786667
  0
CIRCLE
  8
_0-d_寸法
  6
CONTINUOUS
 62
   18
 10
1120.5423997356947
 20
540.86258848786667
 40
1.7254760742187489
  0
LINE
  8
_0-d_寸法
  6
CONTINUOUS
 62
   18
 10
1120.5423997356947
 20
540.86258848786667
 11
1120.5423997356947
 21
496.86258848786673
  0
LINE
  8
_0-d_寸法
  6
CONTINUOUS
 62
   18
 10
1084.0423997133432
 20
496.86258848786673
 11
1120.5423997356947
 21
496.86258848786673
  0
LINE
  8
_0-1_躯体
  6
CONTINUOUS
 62
    7
 10
1044.5923997133432
 20
525.86258848786667
 11
1044.5923997133432
 21
259.81258848786678
  0
LINE
  8
_0-1_躯体
  6
CONTINUOUS
 62
    7
 10
939.5923997133433
 20
249.17793037070501
 11
862.54239971334312
 21
249.17793037070501
  0
LINE
  8
_0-e_文字
  6
CONTINUOUS
 62
    7
 10
888.04239971334312
 20
258.17793037070498
 11
890.64049971334316
 21
249.17793037070501
  0
LINE
  8
_0-e_文字
  6
CONTINUOUS
 62
    7
 10
890.64049971334316
 20
249.17793037070501
 11
893.23859971334321
 21
258.17793037070498
  0
LINE
  8
_0-e_文字
  6
CONTINUOUS
 62
    7
 10
893.23859971334321
 20
258.17793037070498
 11
888.04239971334312
 21
258.17793037070498
  0
LINE
  8
_0-1_躯体
  6
CONTINUOUS
 62
   18
 10
939.5923997133433
 20
550.86258848786667
 11
1044.5923997133432
 21
595.86258848786667
  0
LINE
  8
_0-1_躯体
  6
CONTINUOUS
 62
    7
 10
1035.5923997133432
 20
550.86258848786667
 11
1044.5923997133432
 21
550.86258848786667
  0
LINE
  8
_0-1_躯体
  6
CONTINUOUS
 62
    7
 10
939.5923997133433
 20
595.86258848786667
 11
1044.5923997133432
 21
595.86258848786667
  0
LINE
  8
_0-1_躯体
  6
CONTINUOUS
 62
    7
 10
1044.5923997133432
 20
595.86258848786667
 11
1044.5923997133432
 21
550.86258848786667
  0
LINE
  8
_0-1_躯体
  6
CONTINUOUS
 62
    7
 10
1044.5923997133432
 20
550.86258848786667
 11
939.5923997133433
 21
550.86258848786667
  0
LINE
  8
_0-1_躯体
  6
CONTINUOUS
 62
    7
 10
939.5923997133433
 20
550.86258848786667
 11
939.5923997133433
 21
595.86258848786667
  0
LINE
  8
_0-d_寸法
  6
CONTINUOUS
 62
   18
 10
1067.0923997133432
 20
515.31258848786672
 11
1067.0923997133432
 21
441.81258848786672
  0
LINE
  8
_0-d_寸法
  6
CONTINUOUS
 62
   18
 10
1067.0923997133432
 20
450.81258848786672
 11
1071.8623996955735
 21
450.81258848786672
  0
CIRCLE
  8
_0-d_寸法
  6
CONTINUOUS
 62
   18
 10
1067.0923997133432
 20
450.81258848786672
 40
1.7254760742187489
  0
LINE
  8
_0-d_寸法
  6
CONTINUOUS
 62
   18
 10
1044.5923997133432
 20
450.81258848786672
 11
1067.0923997133432
 21
450.81258848786672
  0
LINE
  8
_0-d_寸法
  6
CONTINUOUS
 62
   18
 10
930.5923997133433
 20
672.06456181024328
 11
939.5923997133433
 21
672.06456181024328
  0
LINE
  8
_0-d_寸法
  6
CONTINUOUS
 62
   18
 10
939.5923997133433
 20
659.83456179247355
 11
939.5923997133433
 21
678.06456178789153
  0
LINE
  8
_0-d_寸法
  6
CONTINUOUS
 62
   18
 10
939.5923997133433
 20
672.06456181024328
 11
1044.5923997133432
 21
672.06456181024328
  0
CIRCLE
  8
_0-d_寸法
  6
CONTINUOUS
 62
   18
 10
939.5923997133433
 20
672.06456181024328
 40
1.7254760742187489
  0
LINE
  8
_0-d_寸法
  6
CONTINUOUS
 62
   18
 10
1044.5923997133432
 20
654.33456179247355
 11
1044.5923997133432
 21
678.06456178789153
  0
LINE
  8
_0-d_寸法
  6
CONTINUOUS
 62
   18
 10
1044.5923997133432
 20
672.06456181024328
 11
1054.0923997133432
 21
672.06456181024328
  0
CIRCLE
  8
_0-d_寸法
  6
CONTINUOUS
 62
   18
 10
1044.5923997133432
 20
672.06456181024328
 40
1.7254760742187489
  0
LINE
  8
_0-d_寸法
  6
CONTINUOUS
 62
   18
 10
1057.0923997133432
 20
654.83456179247366
 11
1057.0923997133432
 21
678.06456178789153
  0
CIRCLE
  8
_0-d_寸法
  6
CONTINUOUS
 62
   18
 10
1057.0923997133432
 20
672.06456181024328
 40
1.7254760742187489
  0
TEXT
  8
_0-e_文字
 62
    4
 10
862.79048042186855
 20
261.2623988799283
 40
9
 41
1
 50
0
  1
玄関ポーチFL
  0
LINE
  8
_0-1_躯体
  6
CONTINUOUS
 62
    7
 10
938.09239971334296
 20
675.86456181024334
 11
939.5923997133433
 21
675.86456181024334
  0
LINE
  8
_0-d_寸法
  6
CONTINUOUS
 62
   18
 10
921.59239971334296
 20
659.83456179247355
 11
921.59239971334296
 21
678.06456178789153
  0
LINE
  8
_0-d_寸法
  6
CONTINUOUS
 62
   18
 10
921.59239971334296
 20
672.06456181024328
 11
939.5923997133433
 21
672.06456181024328
  0
CIRCLE
  8
_0-d_寸法
  6
CONTINUOUS
 62
   18
 10
921.59239971334296
 20
672.06456181024328
 40
1.7254760742187489
  0
LINE
  8
_0-d_寸法
  6
CONTINUOUS
 62
   18
 10
907.59239971334307
 20
672.06456181024328
 11
921.59239971334296
 21
672.06456181024328
  0
LINE
  8
_0-d_寸法
  6
CONTINUOUS
 62
   18
 10
939.5923997133433
 20
659.83456179247355
 11
939.5923997133433
 21
678.06456178789153
  0
CIRCLE
  8
_0-d_寸法
  6
CONTINUOUS
 62
   18
 10
939.5923997133433
 20
672.06456181024328
 40
1.7254760742187489
  0
LINE
  8
_0-d_寸法
  6
CONTINUOUS
 62
   18
 10
907.59239971334307
 20
659.83456179247355
 11
907.59239971334307
 21
678.06456178789153
  0
CIRCLE
  8
_0-d_寸法
  6
CONTINUOUS
 62
   18
 10
907.59239971334307
 20
672.06456181024328
 40
1.7254760742187489
  0
LINE
  8
_0-d_寸法
  6
CONTINUOUS
 62
   18
 10
902.82239973111257
 20
672.06456181024328
 11
907.59239971334307
 21
672.06456181024328
  0
LINE
  8
_0-d_寸法
  6
CONTINUOUS
 62
   18
 10
1067.0923997133432
 20
654.33456179247355
 11
1067.0923997133432
 21
678.06456178789153
  0
CIRCLE
  8
_0-d_寸法
  6
CONTINUOUS
 62
   18
 10
1067.0923997133432
 20
672.06456181024328
 40
1.7254760742187489
  0
LINE
  8
_0-1_躯体
  6
CONTINUOUS
 62
    7
 10
938.09239971334296
 20
595.86258848786667
 11
921.59239971334296
 21
595.86258848786667
  0
LINE
  8
_0-1_躯体
  6
CONTINUOUS
 62
    7
 10
938.09239971334296
 20
640.86258848786645
 11
921.59239971334296
 21
640.86258848786645
  0
LINE
  8
_0-1_躯体
  6
CONTINUOUS
 62
    7
 10
938.09239971334296
 20
659.83456179247355
 11
938.09239971334296
 21
595.86258848786667
  0
LINE
  8
_0-1_躯体
  6
CONTINUOUS
 62
   18
 10
921.59239971334296
 20
595.86258848786667
 11
938.09239971334296
 21
640.86258848786645
  0
LINE
  8
_0-1_躯体
  6
CONTINUOUS
 62
    7
 10
907.59239971334307
 20
591.73762973786665
 11
907.59239971334307
 21
659.83456179247355
  0
LINE
  8
_0-1_躯体
  6
CONTINUOUS
 62
    7
 10
921.59239971334296
 20
591.73762973786665
 11
907.59239971334307
 21
591.73762973786665
  0
LINE
  8
_0-1_躯体
  6
CONTINUOUS
 62
    7
 10
921.59239971334296
 20
591.73762973786665
 11
921.59239971334296
 21
659.83456179247355
  0
LINE
  8
_0-1_躯体
  6
CONTINUOUS
 62
    7
 10
939.5923997133433
 20
594.69142103776426
 11
891.22139971334275
 21
582.59879196526435
  0
LINE
  8
_0-1_躯体
  6
CONTINUOUS
 62
    7
 10
938.09239971334296
 20
595.86258848786667
 11
889.72139971334275
 21
583.76995941536666
  0
LINE
  8
_0-1_躯体
  6
CONTINUOUS
 62
    7
 10
939.5923997133433
 20
659.83456179247355
 11
939.5923997133433
 21
575.86258848786656
  0
LINE
  8
_0-1_躯体
  6
CONTINUOUS
 62
    7
 10
939.5923997133433
 20
550.86258848786667
 11
939.5923997133433
 21
659.83456179247355
  0
TEXT
  8
_0-d_寸法
 62
    4
 10
1135.1379715765872
 20
365.68479103196546
 40
10.499999999999659
 41
1.0000000000000366
 50
90
  1
H＝2,080
  0
LINE
  8
_0-d_寸法
  6
CONTINUOUS
 62
   18
 10
1074.081641485297
 20
275.19758848786665
 11
1074.081641485297
 21
266.20258848786671
  0
TEXT
  8
_0-d_寸法
 62
    4
 10
1072.9955935695157
 20
252.56441839137855
 40
9
 41
1
 50
90
  1
25
  0
LINE
  8
_0-d_寸法
  6
CONTINUOUS
 62
   18
 10
1044.5923997133432
 20
271.19758848786665
 11
1080.0816414629448
 21
271.19758848786665
  0
LINE
  8
_0-e_文字
  6
CONTINUOUS
 62
    7
 10
1104.4458968878942
 20
280.19758848786665
 11
1107.0439968878941
 21
271.19758848786665
  0
LINE
  8
_0-e_文字
  6
CONTINUOUS
 62
    7
 10
1107.0439968878941
 20
271.19758848786665
 11
1109.6420968878942
 21
280.19758848786665
  0
LINE
  8
_0-e_文字
  6
CONTINUOUS
 62
    7
 10
1109.6420968878942
 20
280.19758848786665
 11
1104.4458968878942
 21
280.19758848786665
  0
TEXT
  8
_0-e_文字
 62
    4
 10
1093.1738063089201
 20
282.03527358903244
 40
9
 41
1
 50
0
  1
玄関FL
  0
LINE
  8
_0-2_造作工事
  6
CONTINUOUS
 62
    7
 10
939.5923997133433
 20
530.86258848786667
 11
899.59239971334284
 21
530.86258848786667
  0
LINE
  8
_0-2_造作工事
  6
CONTINUOUS
 62
    7
 10
899.59239971334284
 20
565.86258848786679
 11
899.59239971334284
 21
530.86258848786667
  0
LINE
  8
_0-2_造作工事
  6
CONTINUOUS
 62
    7
 10
939.5923997133433
 20
565.86258848786679
 11
899.59239971334284
 21
565.86258848786679
  0
LINE
  8
_0-2_造作工事
  6
CONTINUOUS
 62
    7
 10
939.5923997133433
 20
530.86258848786667
 11
939.5923997133433
 21
565.86258848786679
  0
LINE
  8
_0-1_躯体
  6
CONTINUOUS
 62
    7
 10
891.22139971334275
 20
582.59879196526435
 11
891.22139971334275
 21
533.46058848786663
  0
LINE
  8
_0-1_躯体
  6
CONTINUOUS
 62
    7
 10
889.72139971334275
 20
583.76995941536666
 11
889.72139971334275
 21
530.86258848786667
  0
LINE
  8
_0-1_躯体
  6
CONTINUOUS
 62
    7
 10
899.59239971334284
 20
535.69556680819915
 11
898.84239971334284
 21
536.99456680819912
  0
LINE
  8
_0-1_躯体
  6
CONTINUOUS
 62
    7
 10
891.22139971334275
 20
533.46058848786663
 11
891.22139971334275
 21
532.59456680819903
  0
LINE
  8
_0-1_躯体
  6
CONTINUOUS
 62
    7
 10
891.22139971334275
 20
532.59456680819903
 11
898.84239971334284
 21
536.99456680819912
  0
LINE
  8
_0-1_躯体
  6
CONTINUOUS
 62
    7
 10
891.22139971334275
 20
530.86258848786667
 11
899.59239971334284
 21
535.69556680819915
  0
LINE
  8
_0-1_躯体
  6
CONTINUOUS
 62
    7
 10
889.72139971334275
 20
530.86258848786667
 11
891.22139971334275
 21
530.86258848786667
  0
LINE
  8
_0-7_ハッチ
  6
CONTINUOUS
 62
   18
 10
899.32121171359267
 20
550.59140048811651
 11
899.05002371384251
 21
550.86258848786679
  0
LINE
  8
_0-7_ハッチ
  6
CONTINUOUS
 62
   18
 10
939.86358771309369
 20
546.13377648761696
 11
940.13477571284375
 21
545.86258848786667
  0
LINE
  8
_0-7_ハッチ
  6
CONTINUOUS
 62
   18
 10
908.13477571284398
 20
530.86258848786667
 11
907.87786076571217
 21
530.60567354073487
  0
LINE
  8
_0-7_ハッチ
  6
CONTINUOUS
 62
   18
 10
939.86358771309369
 20
550.59140048811651
 11
940.13477571284375
 21
550.86258848786679
  0
LINE
  8
_0-7_ハッチ
  6
CONTINUOUS
 62
   18
 10
899.59239971334353
 20
563.57454447729879
 11
901.88044372391141
 21
565.86258848786679
  0
LINE
  8
_0-7_ハッチ
  6
CONTINUOUS
 62
   18
 10
899.59239971334353
 20
556.50347666543325
 11
908.95151153577706
 21
565.86258848786679
  0
LINE
  8
_0-7_ハッチ
  6
CONTINUOUS
 62
   18
 10
899.59239971334353
 20
549.43240885356784
 11
916.02257934764236
 21
565.86258848786679
  0
LINE
  8
_0-7_ハッチ
  6
CONTINUOUS
 62
   18
 10
899.59239971334353
 20
542.3613410417023
 11
923.09364715950801
 21
565.86258848786679
  0
LINE
  8
_0-7_ハッチ
  6
CONTINUOUS
 62
   18
 10
899.59239971334353
 20
535.29027322983688
 11
930.16471497137331
 21
565.86258848786679
  0
LINE
  8
_0-7_ハッチ
  6
CONTINUOUS
 62
   18
 10
902.23578278323885
 20
530.86258848786667
 11
937.23578278323896
 21
565.86258848786679
  0
LINE
  8
_0-7_ハッチ
  6
CONTINUOUS
 62
   18
 10
937.59112184256628
 20
530.86258848786667
 11
939.5923997133433
 21
532.86386635864392
  0
LINE
  8
_0-7_ハッチ
  6
CONTINUOUS
 62
   18
 10
916.37791840696991
 20
530.86258848786667
 11
939.5923997133433
 21
554.07706979424029
  0
LINE
  8
_0-7_ハッチ
  6
CONTINUOUS
 62
   18
 10
923.44898621883533
 20
530.86258848786667
 11
939.5923997133433
 21
547.00600198237476
  0
LINE
  8
_0-7_ハッチ
  6
CONTINUOUS
 62
   18
 10
930.52005403070075
 20
530.86258848786667
 11
939.5923997133433
 21
539.93493417050934
  0
LINE
  8
_0-7_ハッチ
  6
CONTINUOUS
 62
   18
 10
909.30685059510438
 20
530.86258848786667
 11
939.5923997133433
 21
561.14813760610582
  0
LINE
  8
_0-3_雑工事
  6
CENTER1
 62
    7
 10
941.09239971334318
 20
659.83456179247355
 11
941.09239971334318
 21
550.86258848786667
  0
LINE
  8
_0-3_雑工事
  6
PHANTOM1
 62
    7
 10
938.59239971334318
 20
659.83456179247355
 11
938.59239971334318
 21
530.86258848786667
  0
TEXT
  8
_0-e_文字
 62
    4
 10
1001.2697974062517
 20
598.55325447382143
 40
7.5000000000000853
 41
0.9999999999999932
 50
0
  1
(建築工事)
  0
TEXT
  8
_0-e_文字
 62
    7
 10
995.79188219215348
 20
606.87480934783696
 40
9
 41
1
 50
0
  1
シーリング
  0
LINE
  8
_0-3_雑工事
  6
CONTINUOUS
 62
    7
 10
951.5923997133433
 20
540.86258848786656
 11
941.59239971334318
 21
540.86258848786656
  0
LINE
  8
_0-3_雑工事
  6
CONTINUOUS
 62
    7
 10
941.59239971334318
 20
540.86258848786656
 11
942.5923997133433
 21
541.86258848786667
  0
LINE
  8
_0-3_雑工事
  6
CONTINUOUS
 62
    7
 10
942.5923997133433
 20
541.86258848786667
 11
942.5923997133433
 21
548.16258848786651
  0
LINE
  8
_0-3_雑工事
  6
CONTINUOUS
 62
    7
 10
942.5923997133433
 20
548.16258848786651
 11
939.5923997133433
 21
550.86258848786667
  0
LINE
  8
_0-3_雑工事
  6
CONTINUOUS
 62
    7
 10
939.5923997133433
 20
550.86258848786667
 11
951.5923997133433
 21
550.86258848786667
  0
LINE
  8
_0-3_雑工事
  6
CONTINUOUS
 62
    7
 10
951.5923997133433
 20
550.86258848786667
 11
951.5923997133433
 21
540.86258848786656
  0
LINE
  8
ADD_LINE
  6
DOT
 62
    9
 10
954.44431073074838
 20
545.86258848786656
 11
939.78799949072868
 21
545.86258848786656
  0
LINE
  8
_0-3_雑工事
  6
CONTINUOUS
 62
    7
 10
961.59239971334341
 20
550.86258848786656
 11
961.59239971334341
 21
540.86258848786656
  0
CIRCLE
  8
_0-3_雑工事
  6
CONTINUOUS
 62
    7
 10
956.59239971334341
 20
545.86258848786667
 40
4.9999999999999929
  0
LINE
  8
_0-7_ハッチ
  6
CONTINUOUS
 62
   18
 10
958.41855650017408
 20
541.20800457628957
 11
951.93781580176631
 21
547.68874527469734
  0
LINE
  8
_0-7_ハッチ
  6
CONTINUOUS
 62
   18
 10
957.29950649452985
 20
540.9128410195608
 11
951.64265224503754
 21
546.569695269053
  0
LINE
  8
_0-7_ハッチ
  6
CONTINUOUS
 62
   18
 10
955.88529293215652
 20
540.9128410195608
 11
951.64265224503754
 21
545.15548170667978
  0
LINE
  8
_0-7_ハッチ
  6
CONTINUOUS
 62
   18
 10
960.12793361927618
 20
542.32705458193391
 11
953.05686580741053
 21
549.39812239379933
  0
LINE
  8
_0-7_ハッチ
  6
CONTINUOUS
 62
   18
 10
959.34939454729465
 20
541.69138009154233
 11
952.42119131701895
 21
548.6195833218178
  0
LINE
  8
_0-7_ハッチ
  6
CONTINUOUS
 62
   18
 10
960.76360810966776
 20
543.10559365391543
 11
953.83540487939229
 21
550.03379688419091
  0
LINE
  8
_0-7_ハッチ
  6
CONTINUOUS
 62
   18
 10
951.93781580176631
 20
544.03643170103589
 11
958.41855650017419
 21
550.51717239944367
  0
LINE
  8
_0-7_ハッチ
  6
CONTINUOUS
 62
   18
 10
951.64265224503754
 20
545.15548170668012
 11
957.29950649452985
 21
550.81233595617255
  0
LINE
  8
_0-7_ハッチ
  6
CONTINUOUS
 62
   18
 10
951.64265224503754
 20
546.56969526905334
 11
955.88529293215686
 21
550.81233595617255
  0
LINE
  8
_0-7_ハッチ
  6
CONTINUOUS
 62
   18
 10
953.05686580741053
 20
542.32705458193391
 11
960.12793361927618
 21
549.39812239379933
  0
LINE
  8
_0-7_ハッチ
  6
CONTINUOUS
 62
   18
 10
952.42119131701907
 20
543.10559365391543
 11
959.34939454729476
 21
550.03379688419091
  0
LINE
  8
_0-7_ハッチ
  6
CONTINUOUS
 62
   18
 10
953.83540487939229
 20
541.69138009154221
 11
960.76360810966776
 21
548.6195833218178
  0
LINE
  8
_0-7_ハッチ
  6
CONTINUOUS
 62
   18
 10
954.76624292651263
 20
541.20800457628957
 11
961.2469836249204
 21
547.68874527469734
  0
LINE
  8
_0-7_ハッチ
  6
CONTINUOUS
 62
   18
 10
955.88529293215697
 20
540.9128410195608
 11
961.54214718164917
 21
546.569695269053
  0
LINE
  8
_0-7_ハッチ
  6
CONTINUOUS
 62
   18
 10
957.29950649453019
 20
540.9128410195608
 11
961.54214718164917
 21
545.15548170667978
  0
LINE
  8
_0-7_ハッチ
  6
CONTINUOUS
 62
   18
 10
961.2469836249204
 20
544.03643170103578
 11
954.7662429265124
 21
550.51717239944367
  0
LINE
  8
_0-7_ハッチ
  6
CONTINUOUS
 62
   18
 10
961.54214718164917
 20
546.56969526905311
 11
957.29950649452985
 21
550.81233595617255
  0
LINE
  8
_0-7_ハッチ
  6
CONTINUOUS
 62
   18
 10
961.54214718164917
 20
545.15548170668001
 11
955.88529293215686
 21
550.81233595617255
  0
LINE
  8
ADD_LINE
  6
DOT
 62
    9
 10
961.59239971334341
 20
545.86258848786656
 11
951.5923997133433
 21
545.86258848786656
  0
LINE
  8
ADD_LINE
  6
DOT
 62
    9
 10
956.59239971334341
 20
540.86258848786656
 11
956.59239971334341
 21
550.86258848786667
  0
LINE
  8
_0-7_ハッチ
  6
CONTINUOUS
 62
   18
 10
961.59239971334341
 20
542.73948001852921
 11
963.46929949199989
 21
540.86258023987261
  0
LINE
  8
_0-7_ハッチ
  6
CONTINUOUS
 62
   18
 10
961.59239971334341
 20
548.98568870921008
 11
963.46929949199989
 21
550.86258848786679
  0
LINE
  8
_0-7_ハッチ
  6
CONTINUOUS
 62
   18
 10
961.59239971334341
 20
544.74304802209099
 11
967.71194017911887
 21
550.86258848786679
  0
LINE
  8
_0-7_ハッチ
  6
CONTINUOUS
 62
   18
 10
961.59239971334341
 20
546.86436836565065
 11
965.59061983555955
 21
550.86258848786679
  0
LINE
  8
_0-7_ハッチ
  6
CONTINUOUS
 62
   18
 10
961.59239971334341
 20
546.9821207056483
 11
967.71194017911887
 21
540.86258023987261
  0
LINE
  8
_0-7_ハッチ
  6
CONTINUOUS
 62
   18
 10
961.59239971334341
 20
544.86080036208864
 11
965.59061983555955
 21
540.86258023987261
  0
LINE
  8
_0-7_ハッチ
  6
CONTINUOUS
 62
   18
 10
961.59239971334341
 20
549.10344104920796
 11
969.83326052267887
 21
540.86258023987261
  0
LINE
  8
_0-7_ハッチ
  6
CONTINUOUS
 62
   18
 10
961.59239971334341
 20
542.62172767853133
 11
969.83326052267887
 21
550.86258848786679
  0
SOLID
  8
_0-f_
  6
CONTINUOUS
 62
    7
 10
928.15201998678901
 20
686.57067851509339
 11
921.30198989281985
 21
693.66409232777607
 12
925.76642681506496
 22
696.13877012341652
 13
925.76642681506496
 23
696.13877012341652
  0
LINE
  8
_0-f_
  6
CONTINUOUS
 62
    7
 10
913.53241998678902
 20
711.89267851509351
 11
928.15201998678901
 21
686.57067851509339
  0
SOLID
  8
_0-f_
  6
CONTINUOUS
 62
    7
 10
912.76488574345933
 20
685.73725629324395
 11
905.91485564949051
 21
692.83067010592652
 12
910.37929257173562
 22
695.30534790156685
 13
910.37929257173562
 23
695.30534790156685
  0
LINE
  8
_0-f_
  6
CONTINUOUS
 62
    7
 10
895.92878574345934
 20
714.89825629324389
 11
912.76488574345933
 21
685.73725629324395
  0
LINE
  8
_0-f_
  6
CONTINUOUS
 62
    7
 10
915.64611998678868
 20
708.23167851509356
 11
899.19161998678874
 21
736.73167851509356
  0
LINE
  8
_0-f_
  6
CONTINUOUS
 62
    7
 10
979.89321665543616
 20
620.44636422185249
 11
947.13961587145911
 21
548.28278572038107
  0
SOLID
  8
_0-f_
  6
CONTINUOUS
 62
    7
 10
947.13961587145911
 20
548.28278572038107
 11
948.85196152705896
 21
557.99398050588445
 12
953.4781481020201
 22
555.83675427792593
 13
953.4781481020201
 23
555.83675427792593
  0
SOLID
  8
_0-f_
  6
CONTINUOUS
 62
    7
 10
1002.0665997133431
 20
545.61258848786679
 11
1003.7789453689426
 21
555.32378327336983
 12
1008.4051319439037
 22
553.16655704541154
 13
1008.4051319439037
 23
553.16655704541154
  0
LINE
  8
_0-f_
  6
CONTINUOUS
 62
    7
 10
986.43167859344805
 20
620.44636422185249
 11
979.89321665543616
 21
620.44636422185249
  0
SOLID
  8
_0-f_
  6
CONTINUOUS
 62
    7
 10
889.72139971334275
 20
567.08403146099181
 11
882.87136961937392
 21
574.17744527367427
 12
887.33580654161904
 22
576.65212306931471
 13
887.33580654161904
 23
576.65212306931471
  0
LINE
  8
_0-f_
  6
CONTINUOUS
 62
    7
 10
880.82699971334284
 20
582.48963146099175
 11
889.72139971334275
 21
567.08403146099181
  0
SOLID
  8
_0-f_
  6
CONTINUOUS
 62
    7
 10
938.64268703084053
 20
581.97330815869805
 11
931.66990308874711
 21
588.9460921007917
 12
936.09047097293421
 22
591.49830815869814
 13
936.09047097293421
 23
591.49830815869814
  0
LINE
  8
_0-f_
  6
CONTINUOUS
 62
    7
 10
924.77846037617348
 20
605.98674254408729
 11
938.64268703084053
 21
581.97330815869805
  0
LINE
  8
_0-f_
  6
CONTINUOUS
 62
    7
 10
1014.3267232813294
 20
572.62449770255989
 11
1002.0665997133431
 21
545.61258848786679
  0
LINE
  8
_0-f_
  6
CONTINUOUS
 62
    7
 10
1072.7285262327521
 20
572.62449770255989
 11
1014.3267232813294
 21
572.62449770255989
  0
TEXT
  8
_0-e_文字
 62
    7
 10
1073.6748432145628
 20
628.91163358906988
 40
9
 41
1
 50
0
  1
気密シート
  0
TEXT
  8
_0-e_文字
 62
    4
 10
1079.2114512008791
 20
620.21679268374783
 40
7.4999999999999574
 41
1.0000000000000031
 50
0
  1
(建築工事)
  0
SOLID
  8
_0-f_
  6
CONTINUOUS
 62
    7
 10
1046.2327699576954
 20
633.29776961096695
 11
1055.7577699576955
 21
635.84998566887327
 12
1055.7577699576955
 22
630.74555355306052
 13
1055.7577699576955
 23
630.74555355306052
  0
SOLID
  8
_0-f_
  6
CONTINUOUS
 62
    7
 10
958.47788560853439
 20
549.50007381618275
 11
960.1902312641339
 21
559.21126860168579
 12
964.81641783909504
 22
557.0540423737275
 13
964.81641783909504
 23
557.0540423737275
  0
LINE
  8
_0-f_
  6
CONTINUOUS
 62
    7
 10
975.92058208083176
 20
587.93039884157224
 11
958.47788560853439
 21
549.50007381618275
  0
TEXT
  8
_0-e_文字
 62
    7
 10
1075.8160058531664
 20
566.06102940287781
 40
9
 41
1
 50
0
  1
断熱材
  0
TEXT
  8
_0-e_文字
 62
    4
 10
1078.089245396071
 20
556.95299138114092
 40
7.4999999999998295
 41
1.0000000000000138
 50
0
  1
(建築工事)
  0
LINE
  8
_0-f_
  6
CONTINUOUS
 62
    7
 10
1072.7285262327521
 20
587.93039884157224
 11
975.92058208083176
 21
587.93039884157224
  0
LINE
  8
_0-f_
  6
CONTINUOUS
 62
    7
 10
1072.7285262327521
 20
633.29776961096695
 11
1046.2327699576954
 21
633.29776961096695
  0
TEXT
  8
_0-e_文字
 62
    7
 10
1074.1595952049934
 20
583.7017290207225
 40
9
 41
1
 50
0
  1
バックアップ材
  0
TEXT
  8
_0-e_文字
 62
    4
 10
1103.2531845568201
 20
574.33426894578224
 40
7.4999999999998295
 41
1.0000000000000138
 50
0
  1
(建築工事)
  0
LINE
  8
ADD_LINE
  6
DOT
 62
    9
 10
872.90753769725609
 20
579.36142366924605
 11
872.90753769725609
 21
625.20869575962172
  0
LINE
  8
_0-f_
  6
CONTINUOUS
 62
    7
 10
872.90753769725609
 20
582.48963146099175
 11
880.82699971334284
 21
582.48963146099175
  0
LINE
  8
_0-f_
  6
CONTINUOUS
 62
    7
 10
924.77846037617348
 20
605.98674254408729
 11
872.90753769725609
 21
605.98674254408729
  0
LINE
  8
_0-f_
  6
CONTINUOUS
 62
    7
 10
872.90753769725609
 20
714.89825629324389
 11
895.92878574345934
 21
714.89825629324389
  0
LINE
  8
_0-f_
  6
CONTINUOUS
 62
    7
 10
899.19161998678874
 20
736.73167851509356
 11
872.90753769725609
 21
736.73167851509356
  0
TEXT
  8
_0-e_文字
 62
    4
 10
835.9486920443411
 20
591.21900565745909
 40
7.4999999999998295
 41
1.0000000000000138
 50
0
  1
(建築工事)
  0
TEXT
  8
_0-e_文字
 62
    4
 10
833.67258633772656
 20
702.09786936538887
 40
7.5000000000000853
 41
0.9999999999999797
 50
0
  1
(建築工事)
  0
TEXT
  8
_0-e_文字
 62
    7
 10
821.49458513405875
 20
732.56303334181496
 40
9
 41
1
 50
0
  1
通気層t＝18
  0
TEXT
  8
_0-e_文字
 62
    4
 10
834.97321817007753
 20
723.55829459918175
 40
7.5000000000000853
 41
0.9999999999999932
 50
0
  1
(建築工事)
  0
SOLID
  8
_0-f_
  6
CONTINUOUS
 62
    7
 10
1052.014680374727
 20
686.06983042616048
 11
1054.5668964326337
 21
695.59483042616046
 12
1058.9874643168207
 22
693.04261436825414
 13
1058.9874643168207
 23
693.04261436825414
  0
LINE
  8
_0-f_
  6
CONTINUOUS
 62
    7
 10
1066.7340064525542
 20
711.56456181024328
 11
1052.014680374727
 21
686.06983042616048
  0
LINE
  8
_0-f_
  6
CONTINUOUS
 62
    7
 10
1072.7285262327521
 20
711.56456181024328
 11
1066.7340064525542
 21
711.56456181024328
  0
TEXT
  8
_0-e_文字
 62
    4
 10
1078.4965732352639
 20
696.77795649154859
 40
7.5000000000000853
 41
0.9999999999999797
 50
0
  1
(建築工事)
  0
TEXT
  8
_0-e_文字
 62
    7
 10
1075.1284291100376
 20
706.72882272233596
 40
9
 41
1
 50
0
  1
PBt=12.5
  0
SOLID
  8
_0-f_
  6
CONTINUOUS
 62
    7
 10
941.61122812176313
 20
652.69477243211168
 11
944.16344417966957
 21
662.21977243211177
 12
948.58401206385668
 22
659.66755637420533
 13
948.58401206385668
 23
659.66755637420533
  0
LINE
  8
_0-f_
  6
CONTINUOUS
 62
    7
 10
973.20162253379715
 20
707.41108058779844
 11
982.34837543987612
 21
707.41108058779844
  0
LINE
  8
_0-f_
  6
CONTINUOUS
 62
    7
 10
973.20162253379715
 20
707.41108058779844
 11
941.61122812176313
 21
652.69477243211168
  0
TEXT
  8
_0-e_文字
 62
    7
 10
984.62851691628816
 20
703.50189410578992
 40
9
 41
1
 50
0
  1
防風シート
  0
TEXT
  8
_0-e_文字
 62
    4
 10
993.0762864046178
 20
695.01717332500834
 40
7.4999999999998295
 41
1.0000000000000138
 50
0
  1
(建築工事)
  0
LINE
  8
_0-0_本体
  6
CONTINUOUS
 62
   18
 10
1003.5923997133434
 20
275.19758848786671
 11
984.5923997133433
 21
275.19758848786671
  0
LINE
  8
_0-0_本体
  6
CONTINUOUS
 62
   18
 10
1003.5923997133434
 20
275.19758848786671
 11
1003.5923997133434
 21
318.99758848786666
  0
LINE
  8
_0-0_本体
  6
CONTINUOUS
 62
   18
 10
1000.7639725885971
 20
492.86258848786667
 11
984.5923997133433
 21
492.86258848786667
  0
LINE
  8
_0-0_本体
  6
CONTINUOUS
 62
   18
 10
1000.7639725885971
 20
492.86258848786667
 11
1003.5923997133434
 21
490.03416136312035
  0
LINE
  8
_0-0_本体
  6
CONTINUOUS
 62
   18
 10
1003.5923997133434
 20
490.03416136312035
 11
1003.5923997133434
 21
449.06258848786661
  0
LINE
  8
_0-7_ハッチ
  6
CONTINUOUS
 62
   18
 10
1023.4275983822025
 20
540.86258023987261
 11
1033.4276066301966
 21
550.86258848786667
  0
LINE
  8
_0-7_ハッチ
  6
CONTINUOUS
 62
   18
 10
1025.5489187257622
 20
540.86258023987261
 11
1035.5489269737564
 21
550.86258848786667
  0
LINE
  8
_0-7_ハッチ
  6
CONTINUOUS
 62
   18
 10
1027.6702390693217
 20
540.86258023987261
 11
1037.6702473173161
 21
550.86258848786667
  0
LINE
  8
_0-7_ハッチ
  6
CONTINUOUS
 62
   18
 10
1029.7915594128813
 20
540.86258023987261
 11
1039.7915676608764
 21
550.86258848786667
  0
LINE
  8
_0-7_ハッチ
  6
CONTINUOUS
 62
   18
 10
1023.4275983822025
 20
550.86258848786679
 11
1033.4275983822026
 21
540.86258848786656
  0
LINE
  8
_0-7_ハッチ
  6
CONTINUOUS
 62
   18
 10
1025.5489187257624
 20
550.86258848786667
 11
1035.5489187257622
 21
540.86258848786656
  0
LINE
  8
_0-7_ハッチ
  6
CONTINUOUS
 62
   18
 10
1027.6702390693217
 20
550.86258848786667
 11
1037.6702390693217
 21
540.86258848786656
  0
LINE
  8
_0-7_ハッチ
  6
CONTINUOUS
 62
   18
 10
1029.7915594128813
 20
550.86258848786667
 11
1039.7915594128817
 21
540.86258848786656
  0
LINE
  8
_0-7_ハッチ
  6
CONTINUOUS
 62
   18
 10
1031.912879756441
 20
540.86258023987261
 11
1041.9128880044361
 21
550.86258848786667
  0
LINE
  8
_0-7_ハッチ
  6
CONTINUOUS
 62
   18
 10
1031.912879756441
 20
550.86258848786667
 11
1041.9128797564415
 21
540.86258848786656
  0
LINE
  8
_0-7_ハッチ
  6
CONTINUOUS
 62
   18
 10
1034.0342001000008
 20
550.86258848786656
 11
1044.0342001000013
 21
540.86258848786656
  0
LINE
  8
_0-7_ハッチ
  6
CONTINUOUS
 62
   18
 10
1042.5194814742401
 20
540.8625802398725
 11
1044.5923997133432
 21
540.8625802398725
  0
LINE
  8
_0-7_ハッチ
  6
CONTINUOUS
 62
   18
 10
1042.5194814742401
 20
540.8625802398725
 11
1044.5923997133432
 21
542.93549847897521
  0
LINE
  8
_0-7_ハッチ
  6
CONTINUOUS
 62
   18
 10
1036.1555204435606
 20
540.8625802398725
 11
1044.5923997133432
 21
549.29945950965418
  0
LINE
  8
_0-7_ハッチ
  6
CONTINUOUS
 62
   18
 10
1036.1555204435606
 20
550.86258848786656
 11
1044.5923997133432
 21
542.42570921808442
  0
LINE
  8
_0-7_ハッチ
  6
CONTINUOUS
 62
   18
 10
1038.2768407871204
 20
540.8625802398725
 11
1044.5923997133432
 21
547.17813916609452
  0
LINE
  8
_0-7_ハッチ
  6
CONTINUOUS
 62
   18
 10
1038.2768407871204
 20
550.86258848786656
 11
1044.5923997133432
 21
544.54702956164419
  0
LINE
  8
_0-7_ハッチ
  6
CONTINUOUS
 62
   18
 10
1040.3981611306804
 20
540.8625802398725
 11
1044.5923997133432
 21
545.05681882253486
  0
LINE
  8
_0-7_ハッチ
  6
CONTINUOUS
 62
   18
 10
1040.3981611306804
 20
550.86258848786656
 11
1044.5923997133432
 21
546.66834990520397
  0
LINE
  8
_0-7_ハッチ
  6
CONTINUOUS
 62
   18
 10
1042.5194814742401
 20
550.86258848786656
 11
1044.5923997133432
 21
548.78967024876351
  0
LINE
  8
_0-7_ハッチ
  6
CONTINUOUS
 62
   18
 10
1034.0342001000008
 20
540.8625802398725
 11
1044.0342083479959
 21
550.86258848786667
  0
TEXT
  8
_0-e_文字
 62
    7
 10
988.18886938907644
 20
616.26088142192066
 40
9
 41
1
 50
0
  1
変成シリコーン
  0
LINE
  8
_0-1_躯体
  6
CONTINUOUS
 62
    7
 10
1044.5923997133432
 20
271.19758848786665
 11
1151.5423997133432
 21
271.19758848786665
  0
LINE
  8
_0-7_ハッチ
  6
CONTINUOUS
 62
   18
 10
883.93239971334344
 20
249.17793037070501
 11
867.29239971334323
 21
232.53793037070488
  0
LINE
  8
_0-7_ハッチ
  6
CONTINUOUS
 62
   18
 10
889.93239971334344
 20
249.17793037070501
 11
873.29239971334323
 21
232.53793037070488
  0
LINE
  8
_0-7_ハッチ
  6
CONTINUOUS
 62
   18
 10
1120.0423997133432
 20
271.19758848786665
 11
1089.5423997133432
 21
240.6975884878666
  0
LINE
  8
_0-7_ハッチ
  6
CONTINUOUS
 62
   18
 10
1123.0423997133432
 20
271.19758848786665
 11
1092.5423997133432
 21
240.6975884878666
  0
LINE
  8
_0-7_ハッチ
  6
CONTINUOUS
 62
   18
 10
1126.0423997133432
 20
271.19758848786665
 11
1095.5423997133432
 21
240.6975884878666
  0
LINE
  8
_0-d_寸法
  6
CONTINUOUS
 62
   18
 10
862.54239971334312
 20
256.19758848786665
 11
831.68832088363376
 21
256.19758848786665
  0
LINE
  8
_0-d_寸法
  6
CONTINUOUS
 62
   18
 10
862.54239971334312
 20
271.19758848786665
 11
831.68832088363376
 21
271.19758848786665
  0
LINE
  8
_0-d_寸法
  6
CONTINUOUS
 62
   18
 10
837.68832088363376
 20
275.96758847009716
 11
837.68832088363376
 21
271.19758848786665
  0
CIRCLE
  8
_0-d_寸法
  6
CONTINUOUS
 62
   18
 10
837.68832088363376
 20
271.19758848786665
 40
1.7254760742187489
  0
LINE
  8
_0-d_寸法
  6
CONTINUOUS
 62
   18
 10
837.68832088363376
 20
271.19758848786665
 11
837.68832088363376
 21
256.19758848786665
  0
LINE
  8
_0-d_寸法
  6
CONTINUOUS
 62
   18
 10
837.68832088363376
 20
256.19758848786665
 11
837.68832088363376
 21
251.19758848786665
  0
CIRCLE
  8
_0-d_寸法
  6
CONTINUOUS
 62
   18
 10
837.68832088363376
 20
256.19758848786665
 40
1.7254760742187489
  0
TEXT
  8
_0-d_寸法
 62
    4
 10
914.8757793176984
 20
453.09739842576414
 40
9
 41
1
 50
0
  1
40
  0
TEXT
  8
_0-d_寸法
 62
    4
 10
836.40429392061776
 20
258.7256853925478
 40
9
 41
1
 50
90
  1
15
  0
LINE
  8
_2-0_
  6
CONTINUOUS
 62
   18
 10
707.51090137237054
 20
565.08173766093034
 11
707.51090137237054
 21
598.68173766093037
  0
ARC
  8
_2-0_
  6
CONTINUOUS
 62
   18
 10
708.71090137237047
 20
565.08173766093034
 40
1.2000000000000002
 50
180
 51
270
  0
LINE
  8
_2-0_
  6
CONTINUOUS
 62
   18
 10
732.71090137237047
 20
563.88173766093041
 11
708.71090137237047
 21
563.88173766093041
  0
ARC
  8
_2-0_
  6
CONTINUOUS
 62
   18
 10
732.71090137237047
 20
565.08173766093034
 40
1.2000000000000002
 50
270
 51
0
  0
LINE
  8
_2-0_
  6
CONTINUOUS
 62
   18
 10
733.91090137237052
 20
625.68173766093037
 11
733.91090137237052
 21
565.08173766093034
  0
ARC
  8
_2-0_
  6
CONTINUOUS
 62
   18
 10
732.71090137237047
 20
625.68173766093037
 40
1.2000000000000002
 50
0
 51
90
  0
LINE
  8
_2-0_
  6
CONTINUOUS
 62
   18
 10
732.71090137237047
 20
626.88173766093041
 11
719.20340137237042
 21
626.88173766093041
  0
LINE
  8
_2-0_
  6
CONTINUOUS
 62
   18
 10
707.51090137237054
 20
598.68173766093037
 11
716.80340137237044
 21
598.68173766093037
  0
LINE
  8
_2-0_
  6
CONTINUOUS
 62
   18
 10
716.80340137237044
 20
605.2817376609305
 11
716.80340137237044
 21
598.68173766093037
  0
LINE
  8
_2-0_
  6
CONTINUOUS
 62
    7
 10
716.80340137237044
 20
631.4292380284694
 11
716.80340137237044
 21
605.2817376609305
  0
LINE
  8
_2-0_
  6
CONTINUOUS
 62
    7
 10
719.20340137237042
 20
632.04424756584945
 11
719.20340137237042
 21
605.2817376609305
  0
LINE
  8
_2-0_
  6
CONTINUOUS
 62
    7
 10
719.20340137237042
 20
605.2817376609305
 11
716.80340137237044
 21
605.2817376609305
  0
LINE
  8
_2-7_
  6
CONTINUOUS
 62
   18
 10
717.7607013723707
 20
563.88173766093041
 11
707.51090137237054
 21
574.13153766093046
  0
LINE
  8
_2-7_
  6
CONTINUOUS
 62
   18
 10
733.91090137237052
 20
612.38938173262818
 11
719.41854544406851
 21
626.88173766093041
  0
LINE
  8
_2-7_
  6
CONTINUOUS
 62
   18
 10
733.56653005802013
 20
564.24036999320515
 11
707.51090137237054
 21
590.29599867885486
  0
LINE
  8
_2-7_
  6
CONTINUOUS
 62
   18
 10
733.91090137237052
 20
580.06045969677939
 11
715.28962340821954
 21
598.68173766093037
  0
LINE
  8
_2-7_
  6
CONTINUOUS
 62
   18
 10
733.91090137237052
 20
596.22492071470379
 11
717.94450157987455
 21
612.19132050719963
  0
LINE
  8
_2-0_
  6
CONTINUOUS
 62
   18
 10
702.85340137237051
 20
641.04243056706559
 11
702.85340137237051
 21
677.00423766093036
  0
LINE
  8
_2-0_
  6
CONTINUOUS
 62
   18
 10
675.85340137237051
 20
653.72423766093038
 11
677.65340137237047
 21
653.72423766093038
  0
LINE
  8
_2-0_
  6
CONTINUOUS
 62
   18
 10
675.85340137237051
 20
650.72423766093038
 11
675.85340137237051
 21
653.72423766093038
  0
LINE
  8
_2-0_
  6
CONTINUOUS
 62
    7
 10
676.1535039372219
 20
653.27423766093045
 11
677.20340137237042
 21
653.27423766093045
  0
LINE
  8
_2-0_
  6
CONTINUOUS
 62
    7
 10
675.10340137237051
 20
641.00403253122749
 11
675.10340137237051
 21
648.02423766093045
  0
LINE
  8
_2-0_
  6
CONTINUOUS
 62
    7
 10
674.05340137237044
 20
648.77423766093045
 11
674.35340137237051
 21
648.77423766093045
  0
LINE
  8
_2-0_
  6
CONTINUOUS
 62
    7
 10
674.05340137237044
 20
650.27423766093034
 11
677.20340137237042
 21
650.27423766093034
  0
LINE
  8
_2-0_
  6
CONTINUOUS
 62
    7
 10
676.27737493221821
 20
640.95966010144298
 11
676.27104336813409
 21
640.95028599630484
  0
ARC
  8
_2-0_
  6
CONTINUOUS
 62
    7
 10
675.55340137237044
 20
641.00403253122749
 40
0.45
 50
180
 51
270
  0
ARC
  8
_2-0_
  6
CONTINUOUS
 62
    7
 10
674.05340137237044
 20
649.52423766093034
 40
0.75
 50
180
 51
270
  0
ARC
  8
_2-0_
  6
CONTINUOUS
 62
    7
 10
674.05340137237044
 20
649.52423766093034
 40
0.75
 50
90
 51
180
  0
ARC
  8
_2-0_
  6
CONTINUOUS
 62
    7
 10
674.35340137237051
 20
648.02423766093045
 40
0.75
 50
0
 51
90
  0
ARC
  8
_2-0_
  6
CONTINUOUS
 62
    7
 10
675.52522876077285
 20
641.45403253122731
 40
0.9000000000000001
 50
270
 51
325.96367646253134
  0
LINE
  8
_2-0_
  6
CONTINUOUS
 62
    7
 10
676.51839493583054
 20
641.38569366241381
 11
676.27737493221821
 21
640.95966010144298
  0
LINE
  8
_2-0_
  6
CONTINUOUS
 62
    7
 10
676.72495010812372
 20
641.82946184290176
 11
676.51839493583054
 21
641.38569366241381
  0
LINE
  8
_2-0_
  6
CONTINUOUS
 62
    7
 10
676.89574527989816
 20
642.2881820697429
 11
676.72495010812372
 21
641.82946184290176
  0
LINE
  8
_2-0_
  6
CONTINUOUS
 62
    7
 10
677.029709508976
 20
642.75897801550104
 11
676.89574527989816
 21
642.2881820697429
  0
LINE
  8
_2-0_
  6
CONTINUOUS
 62
    7
 10
677.126002795364
 20
643.23889763399075
 11
677.029709508976
 21
642.75897801550104
  0
LINE
  8
_2-0_
  6
CONTINUOUS
 62
    7
 10
677.18402134832991
 20
643.72493167058326
 11
677.126002795364
 21
643.23889763399075
  0
LINE
  8
_2-0_
  6
CONTINUOUS
 62
    7
 10
677.20340137237042
 20
644.21403253122742
 11
677.18402134832991
 21
643.72493167058326
  0
LINE
  8
_2-0_
  6
CONTINUOUS
 62
    7
 10
677.20340137237042
 20
653.27423766093045
 11
677.20340137237042
 21
644.21403253122742
  0
LINE
  8
_2-0_
  6
CONTINUOUS
 62
   18
 10
664.45340137237054
 20
677.00423766093036
 11
664.45340137237054
 21
652.32649393044733
  0
LINE
  8
_2-0_
  6
CONTINUOUS
 62
   18
 10
666.05565764188736
 20
650.72423766093038
 11
675.85340137237051
 21
650.72423766093038
  0
LINE
  8
_2-0_
  6
CONTINUOUS
 62
   18
 10
666.05565764188736
 20
650.72423766093038
 11
664.45340137237054
 21
652.32649393044733
  0
LINE
  8
_2-0_
  6
CONTINUOUS
 62
   18
 10
702.85340137237051
 20
641.04243056706559
 11
677.65340137237047
 21
642.32907790595357
  0
LINE
  8
_2-0_
  6
CONTINUOUS
 62
   18
 10
677.65340137237047
 20
642.32907790595357
 11
677.65340137237047
 21
653.72423766093038
  0
CIRCLE
  8
_2-0_
  6
CONTINUOUS
 62
    7
 10
715.90340137237047
 20
639.93173766093037
 40
8.5500000000000007
  0
CIRCLE
  8
_2-0_
  6
CONTINUOUS
 62
   18
 10
715.90340137237047
 20
639.93173766093037
 40
0.6
  0
CIRCLE
  8
_2-0_
  6
CONTINUOUS
 62
   18
 10
715.90340137237047
 20
639.93173766093037
 40
4.2000000000000002
  0
CIRCLE
  8
_2-0_
  6
CONTINUOUS
 62
   18
 10
715.90340137237047
 20
639.93173766093037
 40
8.25
  0
LINE
  8
_2-0_
  6
CENTER1
 62
   18
 10
715.90340137237047
 20
630.18173766093037
 11
715.90340137237047
 21
649.68173766093037
  0
LINE
  8
_2-0_
  6
CONTINUOUS
 62
    7
 10
708.01591127728955
 20
643.23173766093032
 11
702.85340137237051
 21
643.23173766093032
  0
LINE
  8
_2-0_
  6
CENTER1
 62
   18
 10
725.65340137237047
 20
639.93173766093037
 11
706.15340137237047
 21
639.93173766093037
  0
LINE
  8
_2-0_
  6
CONTINUOUS
 62
    7
 10
681.25340137237049
 20
640.83173766093034
 11
681.25340137237049
 21
642.114147407264
  0
LINE
  8
_2-0_
  6
CONTINUOUS
 62
    7
 10
707.40090173990939
 20
640.83173766093034
 11
681.25340137237049
 21
640.83173766093034
  0
LINE
  8
_2-0_
  6
DASHED1
 62
    7
 10
681.25340137237049
 20
642.114147407264
 11
681.25340137237049
 21
643.23173766093032
  0
LINE
  8
_2-0_
  6
DASHED1
 62
    7
 10
702.85340137237051
 20
643.23173766093032
 11
681.25340137237049
 21
643.23173766093032
  0
LINE
  8
_2-7_
  6
CONTINUOUS
 62
   18
 10
518.1243437836705
 20
623.98866987602401
 11
521.0174115685769
 21
626.88173766093041
  0
LINE
  8
ADD_LINE
  6
DOT
 62
    9
 10
518.1243437836705
 20
565.08173766093034
 11
518.1243437836705
 21
563.1507997942025
  0
LINE
  8
_2-0_
  6
CONTINUOUS
 62
   18
 10
544.52434378367047
 20
565.08173766093034
 11
544.52434378367047
 21
598.68173766093037
  0
ARC
  8
_2-0_
  6
CONTINUOUS
 62
   18
 10
543.32434378367043
 20
565.08173766093034
 40
1.2000000000000002
 50
270
 51
0
  0
LINE
  8
_2-0_
  6
CONTINUOUS
 62
   18
 10
519.32434378367043
 20
563.88173766093041
 11
543.32434378367043
 21
563.88173766093041
  0
ARC
  8
_2-0_
  6
CONTINUOUS
 62
   18
 10
519.32434378367043
 20
565.08173766093034
 40
1.2000000000000002
 50
180
 51
270
  0
LINE
  8
_2-0_
  6
CONTINUOUS
 62
   18
 10
518.12434378367038
 20
625.68173766093037
 11
518.12434378367038
 21
565.08173766093034
  0
ARC
  8
_2-0_
  6
CONTINUOUS
 62
   18
 10
519.32434378367043
 20
625.68173766093037
 40
1.2000000000000002
 50
90
 51
180
  0
LINE
  8
_2-0_
  6
CONTINUOUS
 62
   18
 10
534.32434378367043
 20
626.88173766093041
 11
519.32434378367043
 21
626.88173766093041
  0
ARC
  8
_2-0_
  6
CONTINUOUS
 62
   18
 10
534.32434378367043
 20
625.68173766093037
 40
1.2000000000000002
 50
0
 51
90.000000000000014
  0
LINE
  8
_2-0_
  6
CONTINUOUS
 62
   18
 10
535.52434378367047
 20
625.68173766093037
 11
535.52434378367047
 21
598.68173766093037
  0
LINE
  8
_2-0_
  6
CONTINUOUS
 62
   18
 10
544.52434378367047
 20
598.68173766093037
 11
535.52434378367047
 21
598.68173766093037
  0
LINE
  8
_2-0_
  6
CONTINUOUS
 62
   18
 10
531.92434378367034
 20
563.88173766093041
 11
538.96573662937931
 21
563.88173766093041
  0
LINE
  8
_2-7_
  6
CONTINUOUS
 62
   18
 10
518.1243437836705
 20
607.82420885809961
 11
535.52434378367047
 21
625.22420885809959
  0
LINE
  8
_2-7_
  6
CONTINUOUS
 62
   18
 10
518.1243437836705
 20
591.65974784017521
 11
535.52434378367047
 21
609.05974784017508
  0
LINE
  8
_2-7_
  6
CONTINUOUS
 62
   18
 10
518.1243437836705
 20
575.4952868222507
 11
541.40559462768101
 21
598.77653766626122
  0
LINE
  8
_2-7_
  6
CONTINUOUS
 62
   18
 10
522.77005564560545
 20
563.97653766626127
 11
544.52434378367047
 21
585.73082580432629
  0
LINE
  8
_2-7_
  6
CONTINUOUS
 62
   18
 10
538.93451666352985
 20
563.97653766626127
 11
544.52434378367047
 21
569.56636478640189
  0
LINE
  8
_0-0_本体
  6
CONTINUOUS
 62
   18
 10
575.93543697852488
 20
343.34360430203105
 11
515.99909182208376
 21
343.34360430203105
  0
LINE
  8
_0-0_本体
  6
CONTINUOUS
 62
   18
 10
563.79909182208371
 20
240.34360430203105
 11
563.79909182208371
 21
296.343604302031
  0
LINE
  8
_0-2_造作工事
  6
CONTINUOUS
 62
    7
 10
444.70209182208362
 20
281.50160431091575
 11
444.70209182208362
 21
276.73160432868542
  0
LINE
  8
_0-0_本体
  6
CONTINUOUS
 62
   18
 10
399.48564071285995
 20
343.34360430203105
 11
502.60509182208375
 21
343.34360430203105
  0
CIRCLE
  8
_0-3_雑工事
  6
CONTINUOUS
 62
    7
 10
362.60509182208369
 20
326.34360430203105
 40
4.9999999999999929
  0
LINE
  8
_0-3_雑工事
  6
CONTINUOUS
 62
    7
 10
617.79909182208371
 20
321.34360430203105
 11
607.79909182208371
 21
321.34360430203105
  0
LINE
  8
_0-3_雑工事
  6
CONTINUOUS
 62
    7
 10
340.80509182208368
 20
373.343604302031
 11
342.60509182208375
 21
375.343604302031
  0
LINE
  8
_0-7_ハッチ
  6
CONTINUOUS
 62
   18
 10
367.60509182208375
 20
311.58105629731301
 11
396.60509182208375
 21
340.58105629731301
  0
LINE
  8
_0-7_ハッチ
  6
CONTINUOUS
 62
   18
 10
367.60509182208375
 20
284.64028793410557
 11
396.60509182208375
 21
313.64028793410557
  0
LINE
  8
_0-7_ハッチ
  6
CONTINUOUS
 62
   18
 10
367.60509182208375
 20
257.69951957089819
 11
406.40717656210137
 21
296.50160431091575
  0
LINE
  8
_0-7_ハッチ
  6
CONTINUOUS
 62
   18
 10
402.28871328851613
 20
238.50160431091581
 11
411.60509182208375
 21
247.81798284448337
  0
LINE
  8
_0-7_ハッチ
  6
CONTINUOUS
 62
   18
 10
358.58338660302047
 20
342.36530952109428
 11
357.60509182208375
 21
341.3870147401575
  0
LINE
  8
_0-7_ハッチ
  6
CONTINUOUS
 62
   18
 10
357.87627982183398
 20
343.07241630228077
 11
357.60509182208375
 21
342.8012283025306
  0
LINE
  8
_0-7_ハッチ
  6
CONTINUOUS
 62
   18
 10
357.99875723266814
 20
334.70961233887647
 11
357.60509182208375
 21
334.31594692829208
  0
LINE
  8
_0-7_ハッチ
  6
CONTINUOUS
 62
   18
 10
359.87167867364042
 20
340.82517446696801
 11
357.60509182208375
 21
338.55858761541128
  0
LINE
  8
_0-7_ハッチ
  6
CONTINUOUS
 62
   18
 10
359.20178803883215
 20
341.56949739453285
 11
357.60509182208375
 21
339.97280117778439
  0
LINE
  8
_0-7_ハッチ
  6
CONTINUOUS
 62
   18
 10
362.21853563344962
 20
340.34360430203105
 11
357.60509182208375
 21
335.73016049066513
  0
LINE
  8
_0-7_ハッチ
  6
CONTINUOUS
 62
   18
 10
367.60510007007787
 20
334.92998590817331
 11
362.19148167622018
 21
340.34360430203105
  0
LINE
  8
_0-7_ハッチ
  6
CONTINUOUS
 62
   18
 10
360.80432207107651
 20
340.34360430203105
 11
357.60509182208375
 21
337.14437405303818
  0
LINE
  8
_0-7_ハッチ
  6
CONTINUOUS
 62
   18
 10
363.63274919582273
 20
340.34360430203105
 11
357.99875723266814
 21
334.70961233887647
  0
LINE
  8
_0-7_ハッチ
  6
CONTINUOUS
 62
   18
 10
367.60510007007787
 20
336.34419947054641
 11
363.60569523859328
 21
340.34360430203105
  0
LINE
  8
_0-7_ハッチ
  6
CONTINUOUS
 62
   18
 10
367.60510007007787
 20
337.75841303291946
 11
365.01990880096628
 21
340.34360430203105
  0
LINE
  8
_0-7_ハッチ
  6
CONTINUOUS
 62
   18
 10
367.60510007007787
 20
339.17262659529263
 11
366.51960709271157
 21
340.25811957265887
  0
LINE
  8
_0-7_ハッチ
  6
CONTINUOUS
 62
   18
 10
367.60510007007787
 20
340.58684015766573
 11
367.22671387389818
 21
340.96522635384542
  0
LINE
  8
_0-7_ハッチ
  6
CONTINUOUS
 62
   18
 10
365.04696275819578
 20
340.34360430203105
 11
357.60509182208375
 21
332.90173336591886
  0
LINE
  8
_0-7_ハッチ
  6
CONTINUOUS
 62
   18
 10
366.46117632056894
 20
340.34360430203105
 11
357.60509182208375
 21
331.48751980354581
  0
LINE
  8
_0-7_ハッチ
  6
CONTINUOUS
 62
   18
 10
364.12041386435465
 20
331.34360430203105
 11
357.60509182208375
 21
337.85892634430195
  0
LINE
  8
_0-7_ハッチ
  6
CONTINUOUS
 62
   18
 10
362.70620030198177
 20
331.34360430203105
 11
357.60509182208375
 21
336.4447127819289
  0
LINE
  8
_0-7_ハッチ
  6
CONTINUOUS
 62
   18
 10
366.94884098910086
 20
331.34360430203105
 11
357.60509182208375
 21
340.68735346904816
  0
LINE
  8
_0-7_ハッチ
  6
CONTINUOUS
 62
   18
 10
367.60510007007787
 20
338.65910092679383
 11
360.28960344531515
 21
331.34360430203105
  0
LINE
  8
_0-7_ハッチ
  6
CONTINUOUS
 62
   18
 10
367.60510007007787
 20
340.07331448916688
 11
358.8753898829421
 21
331.34360430203105
  0
LINE
  8
_0-7_ハッチ
  6
CONTINUOUS
 62
   18
 10
367.60510007007787
 20
337.24488736442072
 11
361.70381700768826
 21
331.34360430203105
  0
LINE
  8
_0-7_ハッチ
  6
CONTINUOUS
 62
   18
 10
367.60510007007787
 20
335.83067380204761
 11
363.11803057006142
 21
331.34360430203105
  0
LINE
  8
_0-7_ハッチ
  6
CONTINUOUS
 62
   18
 10
367.60509182208364
 20
333.51578059379443
 11
360.77726811384719
 21
340.34360430203105
  0
LINE
  8
_0-7_ハッチ
  6
CONTINUOUS
 62
   18
 10
367.60509182208364
 20
332.10156703142138
 11
357.60509182208375
 21
342.10156703142127
  0
LINE
  8
_0-7_ハッチ
  6
CONTINUOUS
 62
   18
 10
358.46355961486267
 20
331.34360430203105
 11
357.60509182208375
 21
332.20207209480998
  0
LINE
  8
_0-7_ハッチ
  6
CONTINUOUS
 62
   18
 10
359.87777317723567
 20
331.34360430203105
 11
357.60509182208375
 21
333.61628565718297
  0
LINE
  8
_0-7_ハッチ
  6
CONTINUOUS
 62
   18
 10
361.29198673960877
 20
331.34360430203105
 11
357.60509182208375
 21
335.03049921955596
  0
LINE
  8
_0-7_ハッチ
  6
CONTINUOUS
 62
   18
 10
365.53462742672781
 20
331.34360430203105
 11
357.60509182208375
 21
339.27313990667506
  0
LINE
  8
_0-7_ハッチ
  6
CONTINUOUS
 62
   18
 10
367.60509182208364
 20
331.58802486693389
 11
367.3606712571808
 21
331.34360430203105
  0
LINE
  8
_0-7_ハッチ
  6
CONTINUOUS
 62
   18
 10
367.60510007007781
 20
318.86011105357045
 11
357.60509182208375
 21
308.86010280557628
  0
LINE
  8
_0-7_ハッチ
  6
CONTINUOUS
 62
   18
 10
367.60510007007781
 20
316.73879071001079
 11
357.60509182208375
 21
306.73878246201662
  0
LINE
  8
_0-7_ハッチ
  6
CONTINUOUS
 62
   18
 10
367.60510007007781
 20
314.61747036645124
 11
357.60509182208375
 21
304.61746211845707
  0
LINE
  8
_0-7_ハッチ
  6
CONTINUOUS
 62
   18
 10
367.60510007007781
 20
312.49615002289158
 11
357.60509182208375
 21
302.49614177489752
  0
LINE
  8
_0-7_ハッチ
  6
CONTINUOUS
 62
   18
 10
357.60509182208375
 20
320.98143139713
 11
367.60509182208364
 21
310.98143139713
  0
LINE
  8
_0-7_ハッチ
  6
CONTINUOUS
 62
   18
 10
357.60509182208375
 20
318.86011105357045
 11
367.60509182208364
 21
308.86011105357034
  0
LINE
  8
_0-7_ハッチ
  6
CONTINUOUS
 62
   18
 10
357.60509182208375
 20
316.73879071001079
 11
367.60509182208364
 21
306.73879071001068
  0
LINE
  8
_0-7_ハッチ
  6
CONTINUOUS
 62
   18
 10
357.60509182208375
 20
314.61747036645124
 11
367.60509182208364
 21
304.61747036645119
  0
LINE
  8
_0-7_ハッチ
  6
CONTINUOUS
 62
   18
 10
357.60509182208375
 20
312.49615002289164
 11
367.60509182208364
 21
302.49615002289164
  0
LINE
  8
_0-7_ハッチ
  6
CONTINUOUS
 62
   18
 10
367.60510007007781
 20
310.37482967933198
 11
357.60509182208375
 21
300.37482143133786
  0
LINE
  8
_0-7_ハッチ
  6
CONTINUOUS
 62
   18
 10
357.60509182208375
 20
310.37482967933198
 11
367.60510007007781
 21
300.37482143133786
  0
LINE
  8
_0-7_ハッチ
  6
CONTINUOUS
 62
   18
 10
357.60509182208375
 20
308.25350933577232
 11
367.60510007007781
 21
298.2535010877782
  0
LINE
  8
_0-7_ハッチ
  6
CONTINUOUS
 62
   18
 10
367.60510007007781
 20
308.25350933577232
 11
357.60509182208375
 21
298.2535010877782
  0
LINE
  8
_0-7_ハッチ
  6
CONTINUOUS
 62
   18
 10
367.60510007007781
 20
306.13218899221266
 11
357.60509182208375
 21
296.1321807442186
  0
LINE
  8
_0-7_ハッチ
  6
CONTINUOUS
 62
   18
 10
367.60510007007781
 20
304.01086864865306
 11
357.60509182208375
 21
294.01086040065888
  0
LINE
  8
_0-7_ハッチ
  6
CONTINUOUS
 62
   18
 10
367.60510007007781
 20
301.8895483050934
 11
357.60509182208375
 21
291.88954005709923
  0
LINE
  8
_0-7_ハッチ
  6
CONTINUOUS
 62
   18
 10
367.60510007007781
 20
299.7682279615338
 11
357.60509182208375
 21
289.76821971353968
  0
LINE
  8
_0-7_ハッチ
  6
CONTINUOUS
 62
   18
 10
367.60510007007781
 20
297.64690761797419
 11
357.60509182208375
 21
287.64689936998008
  0
LINE
  8
_0-7_ハッチ
  6
CONTINUOUS
 62
   18
 10
357.60509182208375
 20
306.13218899221266
 11
367.60509182208364
 21
296.1321889922126
  0
LINE
  8
_0-7_ハッチ
  6
CONTINUOUS
 62
   18
 10
357.60509182208375
 20
304.01086864865306
 11
367.60509182208364
 21
294.01086864865295
  0
LINE
  8
_0-7_ハッチ
  6
CONTINUOUS
 62
   18
 10
357.60509182208375
 20
301.8895483050934
 11
367.60509182208364
 21
291.88954830509329
  0
LINE
  8
_0-7_ハッチ
  6
CONTINUOUS
 62
   18
 10
357.60509182208375
 20
299.7682279615338
 11
367.60509182208364
 21
289.76822796153385
  0
LINE
  8
_0-7_ハッチ
  6
CONTINUOUS
 62
   18
 10
357.60509182208375
 20
297.64690761797431
 11
367.60509182208364
 21
287.64690761797425
  0
LINE
  8
_0-7_ハッチ
  6
CONTINUOUS
 62
   18
 10
367.60510007007781
 20
295.52558727441453
 11
357.60509182208375
 21
285.52557902642047
  0
LINE
  8
_0-7_ハッチ
  6
CONTINUOUS
 62
   18
 10
357.60509182208375
 20
295.52558727441453
 11
367.60510007007781
 21
285.52557902642047
  0
LINE
  8
_0-7_ハッチ
  6
CONTINUOUS
 62
   18
 10
357.60509182208375
 20
293.40426693085487
 11
367.60510007007781
 21
283.40425868286076
  0
LINE
  8
_0-7_ハッチ
  6
CONTINUOUS
 62
   18
 10
367.60510007007781
 20
293.40426693085487
 11
357.60509182208375
 21
283.40425868286081
  0
LINE
  8
_0-7_ハッチ
  6
CONTINUOUS
 62
   18
 10
367.60510007007781
 20
291.28294658729527
 11
357.60509182208375
 21
281.28293833930115
  0
LINE
  8
_0-7_ハッチ
  6
CONTINUOUS
 62
   18
 10
367.60510007007781
 20
289.16162624373567
 11
357.60509182208375
 21
279.16161799574149
  0
LINE
  8
_0-7_ハッチ
  6
CONTINUOUS
 62
   18
 10
367.60510007007781
 20
287.04030590017601
 11
357.60509182208375
 21
277.04029765218183
  0
LINE
  8
_0-7_ハッチ
  6
CONTINUOUS
 62
   18
 10
367.60510007007781
 20
284.91898555661641
 11
357.60509182208375
 21
274.91897730862229
  0
LINE
  8
_0-7_ハッチ
  6
CONTINUOUS
 62
   18
 10
367.60510007007781
 20
282.7976652130568
 11
357.60509182208375
 21
272.79765696506269
  0
LINE
  8
_0-7_ハッチ
  6
CONTINUOUS
 62
   18
 10
357.60509182208375
 20
291.28294658729527
 11
367.60509182208364
 21
281.28294658729521
  0
LINE
  8
_0-7_ハッチ
  6
CONTINUOUS
 62
   18
 10
357.60509182208375
 20
289.16162624373567
 11
367.60509182208364
 21
279.16162624373555
  0
LINE
  8
_0-7_ハッチ
  6
CONTINUOUS
 62
   18
 10
357.60509182208375
 20
287.04030590017601
 11
367.60509182208364
 21
277.04030590017589
  0
LINE
  8
_0-7_ハッチ
  6
CONTINUOUS
 62
   18
 10
357.60509182208375
 20
284.91898555661641
 11
367.60509182208364
 21
274.91898555661641
  0
LINE
  8
_0-7_ハッチ
  6
CONTINUOUS
 62
   18
 10
357.60509182208375
 20
282.7976652130568
 11
367.60509182208364
 21
272.79766521305692
  0
LINE
  8
_0-7_ハッチ
  6
CONTINUOUS
 62
   18
 10
367.60510007007781
 20
280.67634486949714
 11
357.60509182208375
 21
270.67633662150308
  0
LINE
  8
_0-7_ハッチ
  6
CONTINUOUS
 62
   18
 10
357.60509182208375
 20
280.67634486949714
 11
367.60510007007781
 21
270.67633662150308
  0
LINE
  8
_0-7_ハッチ
  6
CONTINUOUS
 62
   18
 10
357.60509182208375
 20
278.55502452593748
 11
367.60510007007781
 21
268.55501627794337
  0
LINE
  8
_0-7_ハッチ
  6
CONTINUOUS
 62
   18
 10
367.60510007007781
 20
278.55502452593748
 11
357.60509182208375
 21
268.55501627794342
  0
LINE
  8
_0-7_ハッチ
  6
CONTINUOUS
 62
   18
 10
367.60510007007781
 20
276.43370418237782
 11
357.60509182208375
 21
266.43369593438376
  0
LINE
  8
_0-7_ハッチ
  6
CONTINUOUS
 62
   18
 10
367.60510007007781
 20
274.31238383881822
 11
357.60509182208375
 21
264.31237559082405
  0
LINE
  8
_0-7_ハッチ
  6
CONTINUOUS
 62
   18
 10
367.60510007007781
 20
272.19106349525862
 11
357.60509182208375
 21
262.19105524726444
  0
LINE
  8
_0-7_ハッチ
  6
CONTINUOUS
 62
   18
 10
367.60510007007781
 20
270.06974315169902
 11
357.60509182208375
 21
260.0697349037049
  0
LINE
  8
_0-7_ハッチ
  6
CONTINUOUS
 62
   18
 10
367.60510007007781
 20
267.94842280813941
 11
357.60509182208375
 21
257.9484145601453
  0
LINE
  8
_0-7_ハッチ
  6
CONTINUOUS
 62
   18
 10
357.60509182208375
 20
276.43370418237782
 11
367.60509182208364
 21
266.43370418237782
  0
LINE
  8
_0-7_ハッチ
  6
CONTINUOUS
 62
   18
 10
357.60509182208375
 20
274.31238383881822
 11
367.60509182208364
 21
264.31238383881811
  0
LINE
  8
_0-7_ハッチ
  6
CONTINUOUS
 62
   18
 10
357.60509182208375
 20
272.19106349525862
 11
367.60509182208364
 21
262.19106349525845
  0
LINE
  8
_0-7_ハッチ
  6
CONTINUOUS
 62
   18
 10
357.60509182208375
 20
270.06974315169902
 11
367.60509182208364
 21
260.06974315169902
  0
LINE
  8
_0-7_ハッチ
  6
CONTINUOUS
 62
   18
 10
357.60509182208375
 20
267.94842280813947
 11
367.60509182208364
 21
257.94842280813941
  0
LINE
  8
_0-7_ハッチ
  6
CONTINUOUS
 62
   18
 10
367.60510007007781
 20
265.87236666385081
 11
357.60509182208375
 21
255.87235841585675
  0
LINE
  8
_0-7_ハッチ
  6
CONTINUOUS
 62
   18
 10
357.60509182208375
 20
265.87236666385081
 11
367.60510007007781
 21
255.87235841585675
  0
LINE
  8
_0-7_ハッチ
  6
CONTINUOUS
 62
   18
 10
357.60509182208375
 20
263.75104632029115
 11
367.60510007007781
 21
253.75103807229698
  0
LINE
  8
_0-7_ハッチ
  6
CONTINUOUS
 62
   18
 10
367.60510007007781
 20
263.75104632029115
 11
357.60509182208375
 21
253.75103807229709
  0
LINE
  8
_0-7_ハッチ
  6
CONTINUOUS
 62
   18
 10
367.60509182208364
 20
333.00223842930711
 11
365.94645769480769
 21
331.34360430203105
  0
LINE
  8
_0-7_ハッチ
  6
CONTINUOUS
 62
   18
 10
367.60509182208364
 20
334.41645199168028
 11
364.53224413243447
 21
331.34360430203105
  0
LINE
  8
_0-2_造作工事
  6
CONTINUOUS
 62
    7
 10
451.37509180431402
 20
238.34360430203105
 11
477.60509179973189
 21
238.34360430203105
  0
TEXT
  8
_0-d_寸法
 62
    4
 10
229.51782283076622
 20
364.09740422370731
 40
9
 41
1
 50
90
  1
14
  0
TEXT
  8
_0-d_寸法
 62
    4
 10
470.1636343529982
 20
359.02970698113205
 40
9
 41
1
 50
90
  1
40
  0
LINE
  8
_0-2_造作工事
  6
CONTINUOUS
 62
    7
 10
451.37509180431402
 20
343.34360430203105
 11
477.60509179973189
 21
343.34360430203105
  0
LINE
  8
_0-1_躯体
  6
CONTINUOUS
 62
    7
 10
399.33079588960493
 20
299.20822691066206
 11
399.31517238104107
 21
299.19767430385525
  0
TEXT
  8
_0-d_寸法
 62
    4
 10
229.87803985002716
 20
347.0471319786883
 40
9
 41
1
 50
90
  1
18
  0
LINE
  8
_0-1_躯体
  6
CONTINUOUS
 62
    7
 10
297.60509182208369
 20
361.34360430203105
 11
342.60509182208375
 21
361.34360430203105
  0
LINE
  8
_0-1_躯体
  6
CONTINUOUS
 62
    7
 10
342.60509182208375
 20
361.34360430203105
 11
342.60509182208375
 21
343.34360430203105
  0
LINE
  8
_0-1_躯体
  6
CONTINUOUS
 62
    7
 10
342.60509182208375
 20
343.34360430203105
 11
297.60509182208369
 21
343.34360430203105
  0
LINE
  8
_0-1_躯体
  6
CONTINUOUS
 62
    7
 10
297.60509182208369
 20
343.34360430203105
 11
297.60509182208369
 21
361.34360430203105
  0
LINE
  8
_0-1_躯体
  6
CONTINUOUS
 62
   18
 10
342.60509182208375
 20
343.34360430203105
 11
297.60509182208369
 21
361.34360430203105
  0
TEXT
  8
_0-d_寸法
 62
    4
 10
470.1636343529982
 20
284.34208362659791
 40
9
 41
1
 50
90
  1
105
  0
TEXT
  8
_0-d_寸法
 62
    4
 10
229.50869491496999
 20
279.94255015934391
 40
9
 41
1
 50
90
  1
105
  0
SOLID
  8
_0-f_
  6
CONTINUOUS
 62
    7
 10
216.38321182568413
 20
351.52316987192091
 11
206.85821182568409
 21
348.97095381401459
 12
206.85821182568409
 22
354.07538592982741
 13
206.85821182568409
 23
354.07538592982741
  0
LINE
  8
_0-f_
  6
CONTINUOUS
 62
    7
 10
192.10519182208358
 20
351.52316987192091
 11
216.38321182568413
 21
351.52316987192091
  0
LINE
  8
_0-d_寸法
  6
CONTINUOUS
 62
   18
 10
231.60519182208364
 20
229.34360430203111
 11
231.60519182208364
 21
234.11360428426138
  0
LINE
  8
_0-d_寸法
  6
CONTINUOUS
 62
   18
 10
231.60509182208372
 20
334.34360430203105
 11
231.60509182208372
 21
339.11360428426133
  0
LINE
  8
_0-d_寸法
  6
CONTINUOUS
 62
   18
 10
231.60509182208372
 20
229.34360430203111
 11
231.60509182208372
 21
334.34360430203105
  0
LINE
  8
_0-d_寸法
  6
CONTINUOUS
 62
   18
 10
231.60519182208364
 20
329.57360431980067
 11
231.60519182208364
 21
334.34360430203105
  0
LINE
  8
_0-d_寸法
  6
CONTINUOUS
 62
   18
 10
231.60519182208364
 20
343.34360430203105
 11
231.60519182208364
 21
361.34360430203105
  0
CIRCLE
  8
_0-d_寸法
  6
CONTINUOUS
 62
   18
 10
231.60519182208364
 20
343.34360430203105
 40
1.7254760742187489
  0
LINE
  8
_0-d_寸法
  6
CONTINUOUS
 62
   18
 10
231.60519182208364
 20
334.34360430203105
 11
231.60519182208364
 21
343.34360430203105
  0
LINE
  8
_0-d_寸法
  6
CONTINUOUS
 62
   18
 10
241.60509182208375
 20
343.34360430203105
 11
225.60519184443538
 21
343.34360430203105
  0
LINE
  8
_0-d_寸法
  6
CONTINUOUS
 62
   18
 10
231.60519182208364
 20
361.34360430203105
 11
231.60519182208364
 21
375.343604302031
  0
CIRCLE
  8
_0-d_寸法
  6
CONTINUOUS
 62
   18
 10
231.60519182208364
 20
361.34360430203105
 40
1.7254760742187489
  0
LINE
  8
_0-d_寸法
  6
CONTINUOUS
 62
   18
 10
231.60519182208364
 20
375.343604302031
 11
231.60519182208364
 21
380.11360428426144
  0
CIRCLE
  8
_0-d_寸法
  6
CONTINUOUS
 62
   18
 10
231.60519182208364
 20
375.343604302031
 40
1.7254760742187489
  0
LINE
  8
_0-d_寸法
  6
CONTINUOUS
 62
   18
 10
241.60509182208375
 20
375.343604302031
 11
225.60519184443538
 21
375.343604302031
  0
LINE
  8
_0-d_寸法
  6
CONTINUOUS
 62
   18
 10
241.60509182208375
 20
361.34360430203105
 11
225.60519184443538
 21
361.34360430203105
  0
TEXT
  8
_0-d_寸法
 62
    4
 10
228.73154760679358
 20
223.42889698665124
 40
9
 41
1
 50
90
  1
12.5
  0
TEXT
  8
_0-d_寸法
 62
    4
 10
470.82166162330668
 20
223.18150160964325
 40
9
 41
1
 50
90
  1
23
  0
TEXT
  8
_0-d_寸法
 62
    4
 10
230.33160315451778
 20
207.3840043910717
 40
9
 41
1
 50
90
  1
10
  0
LINE
  8
_0-3_雑工事
  6
CONTINUOUS
 62
    7
 10
367.60509182208364
 20
331.34360430203105
 11
367.60509182208364
 21
341.34360430203094
  0
LINE
  8
_0-3_雑工事
  6
CONTINUOUS
 62
    7
 10
367.60509182208364
 20
341.34360430203094
 11
366.60509182208375
 21
340.34360430203105
  0
LINE
  8
_0-3_雑工事
  6
CONTINUOUS
 62
    7
 10
366.60509182208375
 20
340.34360430203105
 11
360.3050918220838
 21
340.34360430203105
  0
LINE
  8
_0-3_雑工事
  6
CONTINUOUS
 62
    7
 10
360.3050918220838
 20
340.34360430203105
 11
357.60509182208375
 21
343.34360430203105
  0
LINE
  8
_0-3_雑工事
  6
CONTINUOUS
 62
    7
 10
357.60509182208375
 20
343.34360430203105
 11
357.60509182208375
 21
331.34360430203105
  0
LINE
  8
_0-3_雑工事
  6
CONTINUOUS
 62
    7
 10
357.60509182208375
 20
331.34360430203105
 11
367.60509182208364
 21
331.34360430203105
  0
LINE
  8
_0-d_寸法
  6
CONTINUOUS
 62
   18
 10
471.60509182208381
 20
238.34360430203105
 11
471.60509182208381
 21
343.34360430203105
  0
CIRCLE
  8
_0-d_寸法
  6
CONTINUOUS
 62
   18
 10
471.60509182208381
 20
238.34360430203105
 40
1.7254760742187489
  0
LINE
  8
_0-d_寸法
  6
CONTINUOUS
 62
   18
 10
471.60509182208381
 20
209.84360430203111
 11
471.60509182208381
 21
238.34360430203105
  0
LINE
  8
_0-d_寸法
  6
CONTINUOUS
 62
   18
 10
471.60509182208381
 20
343.34360430203105
 11
471.60509182208381
 21
383.34360430203088
  0
CIRCLE
  8
_0-d_寸法
  6
CONTINUOUS
 62
   18
 10
471.60509182208381
 20
343.34360430203105
 40
1.7254760742187489
  0
LINE
  8
_0-d_寸法
  6
CONTINUOUS
 62
   18
 10
471.60509182208381
 20
383.34360430203088
 11
471.60509182208381
 21
388.11360428426144
  0
CIRCLE
  8
_0-d_寸法
  6
CONTINUOUS
 62
   18
 10
471.60509182208381
 20
383.34360430203088
 40
1.7254760742187489
  0
LINE
  8
_0-d_寸法
  6
CONTINUOUS
 62
   18
 10
387.37509180431408
 20
383.34360430203088
 11
477.60509179973189
 21
383.34360430203088
  0
LINE
  8
_0-d_寸法
  6
CONTINUOUS
 62
   18
 10
444.70209182208362
 20
343.34360430203105
 11
444.70209182208362
 21
281.50160431091575
  0
LINE
  8
_0-d_寸法
  6
CONTINUOUS
 62
   18
 10
444.70209182208362
 20
281.50160431091575
 11
444.70209182208362
 21
238.34360430203105
  0
CIRCLE
  8
_0-d_寸法
  6
CONTINUOUS
 62
   18
 10
444.70209182208362
 20
238.34360430203105
 40
1.7254760742187489
  0
LINE
  8
_0-d_寸法
  6
CONTINUOUS
 62
   18
 10
451.37509180431402
 20
238.34360430203105
 11
477.60509179973189
 21
238.34360430203105
  0
LINE
  8
_0-d_寸法
  6
CONTINUOUS
 62
   18
 10
451.37509180431402
 20
343.34360430203105
 11
477.60509179973189
 21
343.34360430203105
  0
LINE
  8
_0-d_寸法
  6
CONTINUOUS
 62
   18
 10
444.70209182208362
 20
348.11360428426133
 11
444.70209182208362
 21
343.34360430203105
  0
LINE
  8
_0-d_寸法
  6
CONTINUOUS
 62
   18
 10
442.97209180431406
 20
343.34360430203105
 11
450.70209179973199
 21
343.34360430203105
  0
CIRCLE
  8
_0-d_寸法
  6
CONTINUOUS
 62
   18
 10
444.70209182208362
 20
343.34360430203105
 40
1.7254760742187489
  0
LINE
  8
_0-d_寸法
  6
CONTINUOUS
 62
   18
 10
444.70209182208362
 20
238.34360430203105
 11
444.70209182208362
 21
233.57360431980072
  0
LINE
  8
_0-d_寸法
  6
CONTINUOUS
 62
   18
 10
446.47209180431395
 20
238.34360430203105
 11
450.70209179973199
 21
238.34360430203105
  0
LINE
  8
_0-e_文字
  6
CONTINUOUS
 62
    7
 10
445.49899331010067
 20
358.44744759012946
 11
400.99899331010056
 21
358.44744759012946
  0
LINE
  8
_0-e_文字
  6
CONTINUOUS
 62
    7
 10
400.99899331010056
 20
370.31822099704158
 11
445.49899331010067
 21
370.31822099704158
  0
LINE
  8
_0-e_文字
  6
CONTINUOUS
 62
    7
 10
400.99899331010056
 20
358.44744759012946
 11
400.99899331010056
 21
370.31822099704158
  0
LINE
  8
_0-e_文字
  6
CONTINUOUS
 62
    7
 10
445.49899331010067
 20
370.31822099704158
 11
445.49899331010067
 21
358.44744759012946
  0
LINE
  8
_0-e_文字
  6
CONTINUOUS
 62
    7
 10
445.49899331010067
 20
228.4967854554157
 11
445.49899331010067
 21
216.62601204850353
  0
LINE
  8
_0-e_文字
  6
CONTINUOUS
 62
    7
 10
445.49899331010067
 20
216.62601204850353
 11
400.99899331010056
 21
216.62601204850353
  0
LINE
  8
_0-e_文字
  6
CONTINUOUS
 62
    7
 10
400.99899331010056
 20
228.4967854554157
 11
445.49899331010067
 21
228.4967854554157
  0
LINE
  8
ADD_LINE
  6
DOT
 62
    9
 10
447.85846496134337
 20
364.38283429358557
 11
400.99899331010056
 21
364.38283429358557
  0
LINE
  8
_0-e_文字
  6
CONTINUOUS
 62
    7
 10
400.99899331010056
 20
216.62601204850353
 11
400.99899331010056
 21
219.46747924610008
  0
LINE
  8
_0-e_文字
  6
CONTINUOUS
 62
    7
 10
400.99899331010056
 20
219.46747924610008
 11
400.99899331010056
 21
228.4967854554157
  0
LINE
  8
ADD_LINE
  6
DOT
 62
    9
 10
445.49899331010067
 20
222.56139875195959
 11
400.99899331010056
 21
222.56139875195959
  0
LINE
  8
ADD_LINE
  6
DOT
 62
    9
 10
423.2489933101005
 20
228.4967854554157
 11
423.2489933101005
 21
216.62601204850353
  0
LINE
  8
ADD_LINE
  6
DOT
 62
    9
 10
423.2489933101005
 20
370.31822099704158
 11
423.2489933101005
 21
358.44744759012946
  0
LINE
  8
_0-2_造作工事
  6
CONTINUOUS
 62
    7
 10
357.60509182208375
 20
331.34360430203105
 11
357.60509182208375
 21
251.34360430203111
  0
LINE
  8
_0-1_躯体
  6
CONTINUOUS
 62
    7
 10
252.60509182208372
 20
343.34360430203105
 11
252.60509182208372
 21
238.34360430203105
  0
LINE
  8
_0-1_躯体
  6
CONTINUOUS
 62
   18
 10
252.60509182208369
 20
238.34360430203105
 11
357.60509182208375
 21
343.34360430203094
  0
LINE
  8
_0-1_躯体
  6
CONTINUOUS
 62
   18
 10
357.60509182208375
 20
238.34360430203105
 11
252.60509182208369
 21
343.34360430203094
  0
LINE
  8
_0-d_寸法
  6
CONTINUOUS
 62
   18
 10
231.60519182208364
 20
218.84360430203105
 11
231.60519182208364
 21
228.843604302031
  0
LINE
  8
_0-d_寸法
  6
CONTINUOUS
 62
   18
 10
231.60519182208364
 20
228.843604302031
 11
231.60519182208364
 21
238.34360430203105
  0
CIRCLE
  8
_0-d_寸法
  6
CONTINUOUS
 62
   18
 10
231.60519182208364
 20
238.34360430203105
 40
1.7254760742187489
  0
LINE
  8
_0-d_寸法
  6
CONTINUOUS
 62
   18
 10
241.60509182208375
 20
238.34360430203105
 11
225.60509184443546
 21
238.34360430203105
  0
LINE
  8
_0-d_寸法
  6
CONTINUOUS
 62
   18
 10
231.60509182208372
 20
233.57360431980061
 11
231.60509182208372
 21
238.34360430203105
  0
CIRCLE
  8
_0-d_寸法
  6
CONTINUOUS
 62
   18
 10
231.60509182208372
 20
238.34360430203105
 40
1.7254760742187489
  0
CIRCLE
  8
_0-d_寸法
  6
CONTINUOUS
 62
   18
 10
231.60519182208364
 20
225.843604302031
 40
1.7254760742187489
  0
LINE
  8
_0-d_寸法
  6
CONTINUOUS
 62
   18
 10
241.60509182208375
 20
225.843604302031
 11
225.60519184443538
 21
225.843604302031
  0
LINE
  8
_0-1_躯体
  6
CONTINUOUS
 62
    7
 10
369.60509182208375
 20
238.34360430203105
 11
241.60509182208375
 21
238.34360430203105
  0
LINE
  8
_0-d_寸法
  6
CONTINUOUS
 62
   18
 10
471.60509182208381
 20
212.57360431980072
 11
471.60509182208381
 21
217.34360430203111
  0
LINE
  8
_0-d_寸法
  6
CONTINUOUS
 62
   18
 10
451.37509180431402
 20
215.84360430203105
 11
477.60509179973189
 21
215.84360430203105
  0
CIRCLE
  8
_0-d_寸法
  6
CONTINUOUS
 62
   18
 10
471.60509182208381
 20
215.84360430203105
 40
1.7254760742187489
  0
LINE
  8
_0-d_寸法
  6
CONTINUOUS
 62
   18
 10
231.60519182208364
 20
202.79464830203102
 11
231.60519182208364
 21
217.34360430203111
  0
LINE
  8
_0-d_寸法
  6
CONTINUOUS
 62
   18
 10
241.60509182208375
 20
215.84360430203105
 11
225.60519184443538
 21
215.84360430203105
  0
CIRCLE
  8
_0-d_寸法
  6
CONTINUOUS
 62
   18
 10
231.60519182208364
 20
215.84360430203105
 40
1.7254760742187489
  0
LINE
  8
_0-1_躯体
  6
CONTINUOUS
 62
    7
 10
327.88048115132619
 20
361.34360430203105
 11
241.60509182208375
 21
361.34360430203105
  0
TEXT
  8
_0-e_文字
 62
    4
 10
409.7489933101005
 20
359.88283429358557
 40
9
 41
1
 50
0
  1
外部・
  0
LINE
  8
_0-7_ハッチ
  6
CONTINUOUS
 62
   18
 10
339.09215307410636
 20
361.34360430203105
 11
330.60509182208375
 21
369.83066555405333
  0
LINE
  8
_0-7_ハッチ
  6
CONTINUOUS
 62
   18
 10
337.67793951173314
 20
361.34360430203105
 11
330.60509182208375
 21
368.41645199168022
  0
LINE
  8
_0-7_ハッチ
  6
CONTINUOUS
 62
   18
 10
340.50636663647936
 20
361.34360430203105
 11
330.60509182208375
 21
371.24487911642643
  0
LINE
  8
_0-7_ハッチ
  6
CONTINUOUS
 62
   18
 10
341.92058019885241
 20
361.34360430203105
 11
330.60509182208375
 21
372.65909267879954
  0
LINE
  8
_0-7_ハッチ
  6
CONTINUOUS
 62
   18
 10
334.84951238698739
 20
361.34360430203105
 11
330.60509182208375
 21
365.58802486693389
  0
LINE
  8
_0-7_ハッチ
  6
CONTINUOUS
 62
   18
 10
336.26372594936004
 20
361.34360430203105
 11
330.60509182208375
 21
367.00223842930706
  0
SOLID
  8
_0-f_
  6
CONTINUOUS
 62
    7
 10
336.35488504593957
 20
374.70446914800903
 11
329.50485495197051
 21
381.79788296069154
 12
333.96929187421563
 22
384.27256075633198
 13
333.96929187421563
 23
384.27256075633198
  0
TEXT
  8
_0-e_文字
 62
    7
 10
141.67331035184193
 20
347.4576093843292
 40
9
 41
1
 50
0
  1
通気層t＝18
  0
TEXT
  8
_0-e_文字
 62
    4
 10
154.38162577052418
 20
339.05990654067165
 40
7.4999999999999574
 41
1.0000000000000042
 50
0
  1
(建築工事)
  0
LINE
  8
_0-7_ハッチ
  6
CONTINUOUS
 62
   18
 10
332.02108526224083
 20
361.34360430203105
 11
330.60509182208381
 21
362.75959774218774
  0
LINE
  8
_0-7_ハッチ
  6
CONTINUOUS
 62
   18
 10
333.43529882461411
 20
361.34360430203105
 11
330.60509182208381
 21
364.17381130456079
  0
TEXT
  8
_0-e_文字
 62
    4
 10
409.7489933101005
 20
218.06139875195959
 40
9
 41
1
 50
0
  1
内部・
  0
LINE
  8
_0-0_本体
  6
CONTINUOUS
 62
   18
 10
399.46067959060383
 20
343.50160431091581
 11
401.60509182208369
 21
301.50160431091581
  0
LINE
  8
_0-0_本体
  6
CONTINUOUS
 62
   18
 10
401.60509182208369
 20
301.50160431091581
 11
420.60509182208375
 21
301.50160431091581
  0
LINE
  8
_0-0_本体
  6
CONTINUOUS
 62
   18
 10
420.60509182208375
 20
298.50160431091581
 11
420.60509182208375
 21
301.50160431091581
  0
LINE
  8
_0-0_本体
  6
CONTINUOUS
 62
   18
 10
415.60509182208375
 20
298.50160431091581
 11
420.60509182208375
 21
298.50160431091581
  0
LINE
  8
_0-0_本体
  6
CONTINUOUS
 62
    7
 10
399.40474993924556
 20
297.25160431091575
 11
411.10509182208375
 21
297.25160431091575
  0
ARC
  8
_0-0_本体
  6
CONTINUOUS
 62
    7
 10
400.15474993924556
 20
297.95464995825313
 40
1.5000000000000231
 50
124.03632353746862
 51
180
  0
LINE
  8
_0-0_本体
  6
CONTINUOUS
 62
    7
 10
400.78046545870262
 20
299.95418553717133
 11
400.04085182455617
 21
299.60992691668258
  0
ARC
  8
_0-0_本体
  6
CONTINUOUS
 62
    7
 10
399.40474993924556
 20
298.00160431091575
 40
0.75
 50
180
 51
270
  0
LINE
  8
_0-0_本体
  6
CONTINUOUS
 62
    7
 10
400.04085182455617
 20
299.60992691668258
 11
399.33079588960493
 21
299.20822691066206
  0
LINE
  8
_0-0_本体
  6
CONTINUOUS
 62
    7
 10
419.85509182208375
 20
300.75160431091581
 11
404.75474993924547
 21
300.75160431091581
  0
ARC
  8
_0-0_本体
  6
CONTINUOUS
 62
    7
 10
411.10509182208375
 20
296.00160431091575
 40
1.25
 50
0
 51
90
  0
LINE
  8
_0-0_本体
  6
CONTINUOUS
 62
    7
 10
412.35509182208375
 20
295.50160431091581
 11
412.35509182208375
 21
296.00160431091575
  0
LINE
  8
_0-0_本体
  6
CONTINUOUS
 62
    7
 10
414.85509182208375
 20
295.50160431091581
 11
414.85509182208375
 21
300.75160431091581
  0
LINE
  8
_0-0_本体
  6
CONTINUOUS
 62
    7
 10
419.85509182208375
 20
299.00177525233488
 11
419.85509182208375
 21
300.75160431091581
  0
ARC
  8
_0-0_本体
  6
CONTINUOUS
 62
    7
 10
413.60509182208369
 20
295.50160431091581
 40
1.25
 50
180
 51
270
  0
ARC
  8
_0-0_本体
  6
CONTINUOUS
 62
    7
 10
413.60509182208369
 20
295.50160431091581
 40
1.25
 50
270
 51
0
  0
LINE
  8
_0-0_本体
  6
CONTINUOUS
 62
    7
 10
402.32965907970146
 20
300.46211787192505
 11
401.54499917010469
 21
300.23884415679527
  0
LINE
  8
_0-0_本体
  6
CONTINUOUS
 62
    7
 10
401.54499917010469
 20
300.23884415679527
 11
400.78046545870262
 21
299.95418553717133
  0
LINE
  8
_0-0_本体
  6
CONTINUOUS
 62
    7
 10
403.12952511051759
 20
300.62260668257164
 11
402.32965907970146
 21
300.46211787192505
  0
LINE
  8
_0-0_本体
  6
CONTINUOUS
 62
    7
 10
404.75474993924547
 20
300.75160431091581
 11
403.93958183817188
 21
300.71930427084806
  0
LINE
  8
_0-0_本体
  6
CONTINUOUS
 62
    7
 10
403.93958183817188
 20
300.71930427084806
 11
403.12952511051759
 21
300.62260668257164
  0
LINE
  8
_0-0_本体
  6
CONTINUOUS
 62
   18
 10
411.60509182208375
 20
240.34360430203105
 11
411.60509182208375
 21
296.343604302031
  0
ARC
  8
_0-0_本体
  6
CONTINUOUS
 62
   18
 10
409.60509182208375
 20
240.34360430203105
 40
2
 50
270
 51
0
  0
LINE
  8
_0-0_本体
  6
CONTINUOUS
 62
   18
 10
369.60509182208364
 20
238.34360430203105
 11
409.60509182208375
 21
238.34360430203105
  0
ARC
  8
_0-0_本体
  6
CONTINUOUS
 62
   18
 10
369.60509182208364
 20
240.34360430203105
 40
2
 50
180
 51
270
  0
LINE
  8
_0-0_本体
  6
CONTINUOUS
 62
   18
 10
367.60509182208364
 20
341.34360430203105
 11
367.60509182208364
 21
240.34360430203105
  0
ARC
  8
_0-0_本体
  6
CONTINUOUS
 62
   18
 10
369.60509182208364
 20
341.34360430203105
 40
2
 50
90
 51
180
  0
LINE
  8
_0-0_本体
  6
CONTINUOUS
 62
   18
 10
394.60509182208375
 20
343.34360430203105
 11
369.60509182208364
 21
343.34360430203105
  0
ARC
  8
_0-0_本体
  6
CONTINUOUS
 62
   18
 10
394.60509182208375
 20
341.34360430203105
 40
2
 50
0
 51
90.000000000000014
  0
LINE
  8
_0-0_本体
  6
CONTINUOUS
 62
   18
 10
396.60509182208375
 20
341.34360430203105
 11
396.60509182208375
 21
296.343604302031
  0
LINE
  8
_0-0_本体
  6
CONTINUOUS
 62
   18
 10
411.60509182208375
 20
296.343604302031
 11
396.60509182208375
 21
296.343604302031
  0
LINE
  8
_0-0_本体
  6
CONTINUOUS
 62
   18
 10
390.60509182208375
 20
238.34360430203105
 11
402.34074656493198
 21
238.34360430203105
  0
LINE
  8
_0-0_本体
  6
CONTINUOUS
 62
   18
 10
402.34074656493198
 20
238.34360430203105
 11
502.60509182208375
 21
238.34360430203105
  0
LINE
  8
_0-3_雑工事
  6
CONTINUOUS
 62
    7
 10
330.60509182208375
 20
375.343604302031
 11
330.60509182208375
 21
361.34360430203105
  0
LINE
  8
_0-3_雑工事
  6
CONTINUOUS
 62
    7
 10
342.60509182208375
 20
361.34360430203105
 11
342.60509182208375
 21
375.343604302031
  0
LINE
  8
_0-3_雑工事
  6
CONTINUOUS
 62
    7
 10
330.60509182208375
 20
361.34360430203105
 11
342.60509182208375
 21
361.34360430203105
  0
LINE
  8
_0-1_躯体
  6
CONTINUOUS
 62
    7
 10
330.60509182208375
 20
375.343604302031
 11
241.60509182208375
 21
375.343604302031
  0
LINE
  8
_0-7_ハッチ
  6
CONTINUOUS
 62
   18
 10
340.0909766128309
 20
361.34360430203151
 11
342.60509182208375
 21
363.85771951128424
  0
LINE
  8
_0-7_ハッチ
  6
CONTINUOUS
 62
   18
 10
335.84833592571215
 20
361.34360430203105
 11
342.60509182208375
 21
368.10036019840186
  0
LINE
  8
_0-7_ハッチ
  6
CONTINUOUS
 62
   18
 10
338.67676305045802
 20
361.34360430203145
 11
342.60509182208375
 21
365.27193307365678
  0
LINE
  8
_0-7_ハッチ
  6
CONTINUOUS
 62
   18
 10
337.26254948808503
 20
361.34360430203117
 11
342.60509182208375
 21
366.68614663602943
  0
LINE
  8
_0-7_ハッチ
  6
CONTINUOUS
 62
   18
 10
342.60509182208375
 20
362.07330624117276
 11
330.60509182208375
 21
374.07330624117265
  0
LINE
  8
_0-7_ハッチ
  6
CONTINUOUS
 62
   18
 10
330.60509182208375
 20
361.75721444789451
 11
342.60509182208375
 21
373.75721444789463
  0
LINE
  8
_0-7_ハッチ
  6
CONTINUOUS
 62
   18
 10
331.60569523859328
 20
361.34360430203105
 11
342.60509182208375
 21
372.34300088552152
  0
LINE
  8
_0-7_ハッチ
  6
CONTINUOUS
 62
   18
 10
334.4341223633395
 20
361.34360430203105
 11
342.60509182208375
 21
369.51457376077525
  0
LINE
  8
_0-7_ハッチ
  6
CONTINUOUS
 62
   18
 10
333.01990880096633
 20
361.34360430203105
 11
342.60509182208375
 21
370.92878732314841
  0
LINE
  8
_0-3_雑工事
  6
CONTINUOUS
 62
    7
 10
332.40509182208376
 20
373.343604302031
 11
330.60509182208375
 21
375.343604302031
  0
LINE
  8
_0-7_ハッチ
  6
CONTINUOUS
 62
    7
 10
340.80509182208368
 20
373.343604302031
 11
332.40509182208376
 21
373.343604302031
  0
LINE
  8
_0-7_ハッチ
  6
CONTINUOUS
 62
   18
 10
342.60509182208375
 20
363.48751980354575
 11
332.74900732359851
 21
373.343604302031
  0
LINE
  8
_0-7_ハッチ
  6
CONTINUOUS
 62
   18
 10
330.60509182208375
 20
370.24249582213292
 11
333.70620030198171
 21
373.343604302031
  0
LINE
  8
_0-7_ハッチ
  6
CONTINUOUS
 62
   18
 10
342.60509182208375
 20
364.90173336591897
 11
334.16322088597161
 21
373.343604302031
  0
LINE
  8
_0-7_ハッチ
  6
CONTINUOUS
 62
   18
 10
330.60509182208375
 20
368.82828225976016
 11
335.12041386435465
 21
373.343604302031
  0
LINE
  8
_0-7_ハッチ
  6
CONTINUOUS
 62
   18
 10
342.60509182208375
 20
366.31594692829208
 11
335.57743444834472
 21
373.343604302031
  0
LINE
  8
_0-7_ハッチ
  6
CONTINUOUS
 62
   18
 10
330.60509182208375
 20
367.41406869738694
 11
336.53462742672775
 21
373.343604302031
  0
LINE
  8
_0-7_ハッチ
  6
CONTINUOUS
 62
   18
 10
330.60509182208375
 20
365.99985513501389
 11
337.9488409891008
 21
373.343604302031
  0
LINE
  8
_0-7_ハッチ
  6
CONTINUOUS
 62
   18
 10
342.60509182208375
 20
369.14437405303823
 11
338.40586157309087
 21
373.343604302031
  0
LINE
  8
_0-7_ハッチ
  6
CONTINUOUS
 62
   18
 10
342.60509182208375
 20
370.55858761541128
 11
339.82007513546398
 21
373.343604302031
  0
LINE
  8
_0-7_ハッチ
  6
CONTINUOUS
 62
   18
 10
330.60509182208375
 20
364.58564157264072
 11
339.36305455147397
 21
373.343604302031
  0
LINE
  8
_0-7_ハッチ
  6
CONTINUOUS
 62
   18
 10
342.60509182208375
 20
367.73016049066507
 11
336.99164801071777
 21
373.343604302031
  0
LINE
  8
_0-7_ハッチ
  6
CONTINUOUS
 62
   18
 10
342.60509182208375
 20
371.97280117778445
 11
341.00577840584214
 21
373.572114594026
  0
LINE
  8
_0-7_ハッチ
  6
CONTINUOUS
 62
   18
 10
341.05550519621261
 20
373.62184138439648
 11
342.60509182208375
 21
375.17142801026756
  0
LINE
  8
_0-7_ハッチ
  6
CONTINUOUS
 62
   18
 10
342.60509182208375
 20
373.3870147401575
 11
341.67828624014362
 21
374.31382032209757
  0
LINE
  8
_0-7_ハッチ
  6
CONTINUOUS
 62
   18
 10
342.60509182208375
 20
374.80122830253049
 11
342.34817687495195
 21
375.05814324966235
  0
LINE
  8
_0-7_ハッチ
  6
CONTINUOUS
 62
   18
 10
330.60509182208375
 20
363.17142801026762
 11
340.77726811384713
 21
373.343604302031
  0
LINE
  8
_0-7_ハッチ
  6
CONTINUOUS
 62
   18
 10
330.60509182208375
 20
371.65670938450592
 11
332.35151573038507
 21
373.40313329280735
  0
LINE
  8
_0-7_ハッチ
  6
CONTINUOUS
 62
   18
 10
330.60509182208375
 20
373.07092294687902
 11
331.68162509557675
 21
374.14745622037208
  0
LINE
  8
_0-7_ハッチ
  6
CONTINUOUS
 62
   18
 10
330.60509182208375
 20
374.48513650925202
 11
331.01173446076848
 21
374.89177914793686
  0
LINE
  8
_0-2_造作工事
  6
CONTINUOUS
 62
    7
 10
342.60509182208375
 20
343.34360430203105
 11
342.60509182208375
 21
383.34360430203088
  0
LINE
  8
_0-2_造作工事
  6
CONTINUOUS
 62
    7
 10
342.60509182208375
 20
343.34360430203105
 11
377.60509182208375
 21
343.34360430203105
  0
LINE
  8
_0-2_造作工事
  6
CONTINUOUS
 62
    7
 10
377.60509182208375
 20
343.34360430203105
 11
377.60509182208375
 21
383.34360430203088
  0
LINE
  8
_0-2_造作工事
  6
CONTINUOUS
 62
    7
 10
342.60509182208375
 20
383.34360430203088
 11
377.60509182208375
 21
383.34360430203088
  0
LINE
  8
_0-7_ハッチ
  6
CONTINUOUS
 62
   18
 10
344.89313583265169
 20
383.34360430203088
 11
342.60509182208375
 21
381.05556029146294
  0
LINE
  8
_0-7_ハッチ
  6
CONTINUOUS
 62
   18
 10
351.96420364451717
 20
383.34360430203088
 11
342.60509182208375
 21
373.98449247959746
  0
LINE
  8
_0-7_ハッチ
  6
CONTINUOUS
 62
   18
 10
359.03527145638265
 20
383.34360430203088
 11
342.60509182208375
 21
366.91342466773199
  0
LINE
  8
_0-7_ハッチ
  6
CONTINUOUS
 62
   18
 10
366.10633926824812
 20
383.34360430203088
 11
342.60509182208375
 21
359.84235685586651
  0
LINE
  8
_0-7_ハッチ
  6
CONTINUOUS
 62
   18
 10
373.1774070801136
 20
383.34360430203088
 11
342.60509182208375
 21
352.77128904400104
  0
LINE
  8
_0-7_ハッチ
  6
CONTINUOUS
 62
   18
 10
377.60509182208375
 20
380.70022123213556
 11
342.60509182208375
 21
345.7002212321355
  0
LINE
  8
_0-7_ハッチ
  6
CONTINUOUS
 62
   18
 10
377.60509182208375
 20
345.34488217280818
 11
375.60381395130662
 21
343.34360430203105
  0
LINE
  8
_0-7_ハッチ
  6
CONTINUOUS
 62
   18
 10
377.60509182208375
 20
366.55808560840461
 11
354.39061051571014
 21
343.34360430203105
  0
LINE
  8
_0-7_ハッチ
  6
CONTINUOUS
 62
   18
 10
377.60509182208375
 20
359.48701779653913
 11
361.46167832757567
 21
343.34360430203105
  0
LINE
  8
_0-7_ハッチ
  6
CONTINUOUS
 62
   18
 10
377.60509182208375
 20
352.41594998467366
 11
368.53274613944109
 21
343.34360430203105
  0
LINE
  8
_0-7_ハッチ
  6
CONTINUOUS
 62
   18
 10
377.60509182208375
 20
373.62915342027009
 11
347.31954270384472
 21
343.34360430203105
  0
LINE
  8
_0-7_ハッチ
  6
CONTINUOUS
 62
   18
 10
362.87627982183392
 20
198.07241630228094
 11
362.60509182208364
 21
197.80122830253077
  0
SOLID
  8
_0-f_
  6
CONTINUOUS
 62
    7
 10
349.38450635691584
 20
383.51942988875692
 11
346.66644484256193
 21
392.9984368731632
 12
342.29109254423349
 22
390.3694599827258
 13
342.29109254423349
 23
390.3694599827258
  0
SOLID
  8
_0-f_
  6
CONTINUOUS
 62
    7
 10
216.38321182568413
 20
368.80121974649853
 11
206.85821182568409
 21
366.2490036885921
 12
206.85821182568409
 22
371.35343580440497
 13
206.85821182568409
 23
371.35343580440497
  0
LINE
  8
_0-f_
  6
CONTINUOUS
 62
    7
 10
192.10519182208358
 20
368.80121974649853
 11
216.38321182568413
 21
368.80121974649853
  0
TEXT
  8
_0-e_文字
 62
    7
 10
140.77031312311075
 20
365.56818673286131
 40
9
 41
1
 50
0
  1
外壁材t＝14
  0
TEXT
  8
_0-e_文字
 62
    4
 10
153.10514805492443
 20
358.55801394138945
 40
7.5000000000000853
 41
0.9999999999999872
 50
0
  1
(建築工事)
  0
TEXT
  8
_0-e_文字
 62
    7
 10
156.62914692927203
 20
400.71995111559693
 40
9
 41
1.0000000000000009
 50
0
  1
防水シート
  0
TEXT
  8
_0-e_文字
 62
    4
 10
169.12186358841745
 20
392.66445223824053
 40
7.5000000000000853
 41
0.9999999999999887
 50
0
  1
(建築工事)
  0
LINE
  8
_0-3_雑工事
  6
CENTER1
 62
    7
 10
357.60509182208375
 20
341.84360430203105
 11
241.60509182208375
 21
341.84360430203105
  0
LINE
  8
_0-3_雑工事
  6
PHANTOM1
 62
    7
 10
377.60509182208375
 20
344.84360430203105
 11
241.60509182208375
 21
344.84360430203105
  0
SOLID
  8
_0-f_
  6
CONTINUOUS
 62
    7
 10
270.04178102105925
 20
344.84360430203105
 11
267.32371950670534
 21
354.32261128643728
 12
262.94836720837685
 22
351.69363439599994
 13
262.94836720837685
 23
351.69363439599994
  0
LINE
  8
_0-f_
  6
CONTINUOUS
 62
    7
 10
210.15326173317487
 20
404.83710333832056
 11
235.40444345321643
 21
404.83710333832056
  0
LINE
  8
_0-f_
  6
CONTINUOUS
 62
    7
 10
235.40444345321643
 20
404.83710333832056
 11
270.04178102105925
 21
344.84360430203105
  0
TEXT
  8
_0-e_文字
 62
    7
 10
266.20125636418493
 20
438.44398600198986
 40
9
 41
1.0000000000000027
 50
0
  1
外額縁
  0
TEXT
  8
_0-e_文字
 62
    4
 10
266.92159282504758
 20
430.25331308026477
 40
7.5000000000000853
 41
0.9999999999999864
 50
0
  1
(建築工事)
  0
LINE
  8
_0-f_
  6
CONTINUOUS
 62
    7
 10
298.73917374139188
 20
441.61458060054792
 11
315.84318307050768
 21
441.61458060054792
  0
LINE
  8
_0-f_
  6
CONTINUOUS
 62
    7
 10
315.84318307050768
 20
441.61458060054792
 11
349.38450635691584
 21
383.51942988875692
  0
LINE
  8
_0-f_
  6
CONTINUOUS
 62
    7
 10
298.74450598972646
 20
420.74054768094419
 11
309.77595510494939
 21
420.74054768094419
  0
LINE
  8
_0-f_
  6
CONTINUOUS
 62
    7
 10
309.77595510494939
 20
420.74054768094419
 11
336.35488504593957
 21
374.70446914800903
  0
SOLID
  8
_0-f_
  6
CONTINUOUS
 62
    7
 10
216.38321182568413
 20
232.87916382861107
 11
206.85821182568409
 21
230.32694777070469
 12
206.85821182568409
 22
235.4313798865175
 13
206.85821182568409
 23
235.4313798865175
  0
LINE
  8
_0-f_
  6
CONTINUOUS
 62
    7
 10
192.10519182208358
 20
232.87916382861107
 11
216.38321182568413
 21
232.87916382861107
  0
TEXT
  8
_0-e_文字
 62
    7
 10
152.27125377077763
 20
227.95305430230832
 40
9
 41
1
 50
0
  1
PBt=12.5
  0
TEXT
  8
_0-e_文字
 62
    4
 10
154.07791092859424
 20
219.75475424995068
 40
7.4999999999999574
 41
1.0000000000000031
 50
0
  1
(建築工事)
  0
SOLID
  8
_0-f_
  6
CONTINUOUS
 62
    7
 10
266.00609390053785
 20
236.85716056044842
 11
263.4538778426313
 21
227.33216056044839
 12
259.03330995844419
 22
229.88437661835485
 13
259.03330995844419
 23
229.88437661835485
  0
LINE
  8
_0-f_
  6
CONTINUOUS
 62
    7
 10
239.05538328821342
 20
190.1771387152524
 11
266.00609390053785
 21
236.85716056044842
  0
LINE
  8
_0-f_
  6
CONTINUOUS
 62
    7
 10
221.03895350910344
 20
190.1771387152524
 11
239.05538328821342
 21
190.1771387152524
  0
TEXT
  8
_0-e_文字
 62
    7
 10
172.54664677944373
 20
185.89263987543859
 40
9
 41
1
 50
0
  1
気密シート
  0
TEXT
  8
_0-e_文字
 62
    4
 10
180.97328686977477
 20
176.89963968724908
 40
7.4999999999999574
 41
1.0000000000000031
 50
0
  1
(建築工事)
  0
LINE
  8
_0-7_ハッチ
  6
CONTINUOUS
 62
   18
 10
616.82079704114699
 20
342.36530952109428
 11
617.79909182208371
 21
341.3870147401575
  0
LINE
  8
_0-7_ハッチ
  6
CONTINUOUS
 62
   18
 10
617.52790382233343
 20
343.07241630228077
 11
617.79909182208371
 21
342.8012283025306
  0
LINE
  8
_0-7_ハッチ
  6
CONTINUOUS
 62
   18
 10
617.40542641149932
 20
334.70961233887647
 11
617.79909182208371
 21
334.31594692829208
  0
LINE
  8
_0-7_ハッチ
  6
CONTINUOUS
 62
   18
 10
615.53250497052704
 20
340.82517446696801
 11
617.79909182208371
 21
338.55858761541128
  0
LINE
  8
_0-7_ハッチ
  6
CONTINUOUS
 62
   18
 10
616.20239560533537
 20
341.56949739453285
 11
617.79909182208371
 21
339.97280117778439
  0
LINE
  8
_0-7_ハッチ
  6
CONTINUOUS
 62
   18
 10
613.18564801071784
 20
340.34360430203105
 11
617.79909182208371
 21
335.73016049066513
  0
LINE
  8
_0-7_ハッチ
  6
CONTINUOUS
 62
   18
 10
607.79908357408954
 20
334.92998590817331
 11
613.21270196794717
 21
340.34360430203105
  0
LINE
  8
_0-7_ハッチ
  6
CONTINUOUS
 62
   18
 10
614.59986157309095
 20
340.34360430203105
 11
617.79909182208371
 21
337.14437405303818
  0
LINE
  8
_0-7_ハッチ
  6
CONTINUOUS
 62
   18
 10
611.77143444834473
 20
340.34360430203105
 11
617.40542641149932
 21
334.70961233887647
  0
LINE
  8
_0-7_ハッチ
  6
CONTINUOUS
 62
   18
 10
607.79908357408954
 20
336.34419947054641
 11
611.79848840557429
 21
340.34360430203105
  0
LINE
  8
_0-7_ハッチ
  6
CONTINUOUS
 62
   18
 10
607.79908357408954
 20
337.75841303291946
 11
610.38427484320107
 21
340.34360430203105
  0
LINE
  8
_0-7_ハッチ
  6
CONTINUOUS
 62
   18
 10
607.79908357408954
 20
339.17262659529263
 11
608.88457655145589
 21
340.25811957265887
  0
LINE
  8
_0-7_ハッチ
  6
CONTINUOUS
 62
   18
 10
607.79908357408954
 20
340.58684015766573
 11
608.17746977026923
 21
340.96522635384542
  0
LINE
  8
_0-7_ハッチ
  6
CONTINUOUS
 62
   18
 10
610.35722088597163
 20
340.34360430203105
 11
617.79909182208371
 21
332.90173336591886
  0
LINE
  8
_0-7_ハッチ
  6
CONTINUOUS
 62
   18
 10
608.94300732359852
 20
340.34360430203105
 11
617.79909182208371
 21
331.48751980354581
  0
LINE
  8
_0-7_ハッチ
  6
CONTINUOUS
 62
   18
 10
611.28376977981293
 20
331.34360430203105
 11
617.79909182208371
 21
337.85892634430195
  0
LINE
  8
_0-7_ハッチ
  6
CONTINUOUS
 62
   18
 10
612.69798334218569
 20
331.34360430203105
 11
617.79909182208371
 21
336.4447127819289
  0
LINE
  8
_0-7_ハッチ
  6
CONTINUOUS
 62
   18
 10
608.45534265506649
 20
331.34360430203105
 11
617.79909182208371
 21
340.68735346904816
  0
LINE
  8
_0-7_ハッチ
  6
CONTINUOUS
 62
   18
 10
607.79908357408954
 20
338.65910092679383
 11
615.11458019885231
 21
331.34360430203105
  0
LINE
  8
_0-7_ハッチ
  6
CONTINUOUS
 62
   18
 10
607.79908357408954
 20
340.07331448916688
 11
616.52879376122542
 21
331.34360430203105
  0
LINE
  8
_0-7_ハッチ
  6
CONTINUOUS
 62
   18
 10
607.79908357408954
 20
337.24488736442072
 11
613.7003666364792
 21
331.34360430203105
  0
LINE
  8
_0-7_ハッチ
  6
CONTINUOUS
 62
   18
 10
607.79908357408954
 20
335.83067380204761
 11
612.2861530741061
 21
331.34360430203105
  0
LINE
  8
_0-7_ハッチ
  6
CONTINUOUS
 62
   18
 10
607.79909182208371
 20
333.51578059379443
 11
614.62691553032028
 21
340.34360430203105
  0
LINE
  8
_0-7_ハッチ
  6
CONTINUOUS
 62
   18
 10
607.79909182208371
 20
332.10156703142138
 11
617.79909182208371
 21
342.10156703142127
  0
LINE
  8
_0-7_ハッチ
  6
CONTINUOUS
 62
   18
 10
616.94062402930467
 20
331.34360430203105
 11
617.79909182208371
 21
332.20207209480998
  0
LINE
  8
_0-7_ハッチ
  6
CONTINUOUS
 62
   18
 10
615.52641046693168
 20
331.34360430203105
 11
617.79909182208371
 21
333.61628565718297
  0
LINE
  8
_0-7_ハッチ
  6
CONTINUOUS
 62
   18
 10
614.11219690455869
 20
331.34360430203105
 11
617.79909182208371
 21
335.03049921955596
  0
LINE
  8
_0-7_ハッチ
  6
CONTINUOUS
 62
   18
 10
609.86955621743971
 20
331.34360430203105
 11
617.79909182208371
 21
339.27313990667506
  0
LINE
  8
_0-7_ハッチ
  6
CONTINUOUS
 62
   18
 10
607.79909182208371
 20
331.58802486693389
 11
608.04351238698666
 21
331.34360430203105
  0
LINE
  8
_0-7_ハッチ
  6
CONTINUOUS
 62
   18
 10
607.79908357408954
 20
320.98143139713
 11
617.79909182208371
 21
310.98142314913594
  0
LINE
  8
_0-7_ハッチ
  6
CONTINUOUS
 62
   18
 10
607.79908357408954
 20
318.86011105357045
 11
617.79909182208371
 21
308.86010280557628
  0
LINE
  8
_0-7_ハッチ
  6
CONTINUOUS
 62
   18
 10
607.79908357408954
 20
316.73879071001079
 11
617.79909182208371
 21
306.73878246201662
  0
LINE
  8
_0-7_ハッチ
  6
CONTINUOUS
 62
   18
 10
607.79908357408954
 20
314.61747036645124
 11
617.79909182208371
 21
304.61746211845707
  0
LINE
  8
_0-7_ハッチ
  6
CONTINUOUS
 62
   18
 10
607.79908357408954
 20
312.49615002289158
 11
617.79909182208371
 21
302.49614177489752
  0
LINE
  8
_0-7_ハッチ
  6
CONTINUOUS
 62
   18
 10
617.79909182208371
 20
320.98143139713
 11
607.79909182208371
 21
310.98143139713
  0
LINE
  8
_0-7_ハッチ
  6
CONTINUOUS
 62
   18
 10
617.79909182208371
 20
318.86011105357045
 11
607.79909182208371
 21
308.86011105357034
  0
LINE
  8
_0-7_ハッチ
  6
CONTINUOUS
 62
   18
 10
617.79909182208371
 20
316.73879071001079
 11
607.79909182208371
 21
306.73879071001068
  0
LINE
  8
_0-7_ハッチ
  6
CONTINUOUS
 62
   18
 10
617.79909182208371
 20
314.61747036645124
 11
607.79909182208371
 21
304.61747036645119
  0
LINE
  8
_0-7_ハッチ
  6
CONTINUOUS
 62
   18
 10
617.79909182208371
 20
312.49615002289164
 11
607.79909182208371
 21
302.49615002289164
  0
LINE
  8
_0-7_ハッチ
  6
CONTINUOUS
 62
   18
 10
607.79908357408954
 20
310.37482967933198
 11
617.79909182208371
 21
300.37482143133786
  0
LINE
  8
_0-7_ハッチ
  6
CONTINUOUS
 62
   18
 10
617.79909182208371
 20
310.37482967933198
 11
607.79908357408954
 21
300.37482143133786
  0
LINE
  8
_0-7_ハッチ
  6
CONTINUOUS
 62
   18
 10
617.79909182208371
 20
308.25350933577232
 11
607.79908357408954
 21
298.2535010877782
  0
LINE
  8
_0-7_ハッチ
  6
CONTINUOUS
 62
   18
 10
607.79908357408954
 20
308.25350933577232
 11
617.79909182208371
 21
298.2535010877782
  0
LINE
  8
_0-7_ハッチ
  6
CONTINUOUS
 62
   18
 10
607.79908357408954
 20
306.13218899221266
 11
617.79909182208371
 21
296.1321807442186
  0
LINE
  8
_0-7_ハッチ
  6
CONTINUOUS
 62
   18
 10
607.79908357408954
 20
304.01086864865306
 11
617.79909182208371
 21
294.01086040065888
  0
LINE
  8
_0-7_ハッチ
  6
CONTINUOUS
 62
   18
 10
607.79908357408954
 20
301.8895483050934
 11
617.79909182208371
 21
291.88954005709923
  0
LINE
  8
_0-7_ハッチ
  6
CONTINUOUS
 62
   18
 10
607.79908357408954
 20
299.7682279615338
 11
617.79909182208371
 21
289.76821971353968
  0
LINE
  8
_0-7_ハッチ
  6
CONTINUOUS
 62
   18
 10
607.79908357408954
 20
297.64690761797419
 11
617.79909182208371
 21
287.64689936998008
  0
LINE
  8
_0-7_ハッチ
  6
CONTINUOUS
 62
   18
 10
617.79909182208371
 20
306.13218899221266
 11
607.79909182208371
 21
296.1321889922126
  0
LINE
  8
_0-7_ハッチ
  6
CONTINUOUS
 62
   18
 10
617.79909182208371
 20
304.01086864865306
 11
607.79909182208371
 21
294.01086864865295
  0
LINE
  8
_0-7_ハッチ
  6
CONTINUOUS
 62
   18
 10
617.79909182208371
 20
301.8895483050934
 11
607.79909182208371
 21
291.88954830509329
  0
LINE
  8
_0-7_ハッチ
  6
CONTINUOUS
 62
   18
 10
617.79909182208371
 20
299.7682279615338
 11
607.79909182208371
 21
289.76822796153385
  0
LINE
  8
_0-7_ハッチ
  6
CONTINUOUS
 62
   18
 10
617.79909182208371
 20
297.64690761797431
 11
607.79909182208371
 21
287.64690761797425
  0
LINE
  8
_0-7_ハッチ
  6
CONTINUOUS
 62
   18
 10
607.79908357408954
 20
295.52558727441453
 11
617.79909182208371
 21
285.52557902642047
  0
LINE
  8
_0-7_ハッチ
  6
CONTINUOUS
 62
   18
 10
617.79909182208371
 20
295.52558727441453
 11
607.79908357408954
 21
285.52557902642047
  0
LINE
  8
_0-7_ハッチ
  6
CONTINUOUS
 62
   18
 10
617.79909182208371
 20
293.40426693085487
 11
607.79908357408954
 21
283.40425868286076
  0
LINE
  8
_0-7_ハッチ
  6
CONTINUOUS
 62
   18
 10
607.79908357408954
 20
293.40426693085487
 11
617.79909182208371
 21
283.40425868286081
  0
LINE
  8
_0-7_ハッチ
  6
CONTINUOUS
 62
   18
 10
607.79908357408954
 20
291.28294658729527
 11
617.79909182208371
 21
281.28293833930115
  0
LINE
  8
_0-7_ハッチ
  6
CONTINUOUS
 62
   18
 10
607.79908357408954
 20
289.16162624373567
 11
617.79909182208371
 21
279.16161799574149
  0
LINE
  8
_0-7_ハッチ
  6
CONTINUOUS
 62
   18
 10
607.79908357408954
 20
287.04030590017601
 11
617.79909182208371
 21
277.04029765218183
  0
LINE
  8
_0-7_ハッチ
  6
CONTINUOUS
 62
   18
 10
607.79908357408954
 20
284.91898555661641
 11
617.79909182208371
 21
274.91897730862229
  0
LINE
  8
_0-7_ハッチ
  6
CONTINUOUS
 62
   18
 10
607.79908357408954
 20
282.7976652130568
 11
617.79909182208371
 21
272.79765696506269
  0
LINE
  8
_0-7_ハッチ
  6
CONTINUOUS
 62
   18
 10
617.79909182208371
 20
291.28294658729527
 11
607.79909182208371
 21
281.28294658729521
  0
LINE
  8
_0-7_ハッチ
  6
CONTINUOUS
 62
   18
 10
617.79909182208371
 20
289.16162624373567
 11
607.79909182208371
 21
279.16162624373555
  0
LINE
  8
_0-7_ハッチ
  6
CONTINUOUS
 62
   18
 10
617.79909182208371
 20
287.04030590017601
 11
607.79909182208371
 21
277.04030590017589
  0
LINE
  8
_0-7_ハッチ
  6
CONTINUOUS
 62
   18
 10
617.79909182208371
 20
284.91898555661641
 11
607.79909182208371
 21
274.91898555661641
  0
LINE
  8
_0-7_ハッチ
  6
CONTINUOUS
 62
   18
 10
617.79909182208371
 20
282.7976652130568
 11
607.79909182208371
 21
272.79766521305692
  0
LINE
  8
_0-7_ハッチ
  6
CONTINUOUS
 62
   18
 10
607.79908357408954
 20
280.67634486949714
 11
617.79909182208371
 21
270.67633662150308
  0
LINE
  8
_0-7_ハッチ
  6
CONTINUOUS
 62
   18
 10
617.79909182208371
 20
280.67634486949714
 11
607.79908357408954
 21
270.67633662150308
  0
LINE
  8
_0-7_ハッチ
  6
CONTINUOUS
 62
   18
 10
617.79909182208371
 20
278.55502452593748
 11
607.79908357408954
 21
268.55501627794337
  0
LINE
  8
_0-7_ハッチ
  6
CONTINUOUS
 62
   18
 10
607.79908357408954
 20
278.55502452593748
 11
617.79909182208371
 21
268.55501627794342
  0
LINE
  8
_0-7_ハッチ
  6
CONTINUOUS
 62
   18
 10
607.79908357408954
 20
276.43370418237782
 11
617.79909182208371
 21
266.43369593438376
  0
LINE
  8
_0-7_ハッチ
  6
CONTINUOUS
 62
   18
 10
607.79908357408954
 20
274.31238383881822
 11
617.79909182208371
 21
264.31237559082405
  0
LINE
  8
_0-7_ハッチ
  6
CONTINUOUS
 62
   18
 10
607.79908357408954
 20
272.19106349525862
 11
617.79909182208371
 21
262.19105524726444
  0
LINE
  8
_0-7_ハッチ
  6
CONTINUOUS
 62
   18
 10
607.79908357408954
 20
270.06974315169902
 11
617.79909182208371
 21
260.0697349037049
  0
LINE
  8
_0-7_ハッチ
  6
CONTINUOUS
 62
   18
 10
607.79908357408954
 20
267.94842280813941
 11
617.79909182208371
 21
257.9484145601453
  0
LINE
  8
_0-7_ハッチ
  6
CONTINUOUS
 62
   18
 10
617.79909182208371
 20
276.43370418237782
 11
607.79909182208371
 21
266.43370418237782
  0
LINE
  8
_0-7_ハッチ
  6
CONTINUOUS
 62
   18
 10
617.79909182208371
 20
274.31238383881822
 11
607.79909182208371
 21
264.31238383881811
  0
LINE
  8
_0-7_ハッチ
  6
CONTINUOUS
 62
   18
 10
617.79909182208371
 20
272.19106349525862
 11
607.79909182208371
 21
262.19106349525845
  0
LINE
  8
_0-7_ハッチ
  6
CONTINUOUS
 62
   18
 10
617.79909182208371
 20
270.06974315169902
 11
607.79909182208371
 21
260.06974315169902
  0
LINE
  8
_0-7_ハッチ
  6
CONTINUOUS
 62
   18
 10
617.79909182208371
 20
267.94842280813947
 11
607.79909182208371
 21
257.94842280813941
  0
LINE
  8
_0-7_ハッチ
  6
CONTINUOUS
 62
   18
 10
607.79908357408954
 20
265.87236666385081
 11
617.79909182208371
 21
255.87235841585675
  0
LINE
  8
_0-7_ハッチ
  6
CONTINUOUS
 62
   18
 10
617.79909182208371
 20
265.87236666385081
 11
607.79908357408954
 21
255.87235841585675
  0
LINE
  8
_0-7_ハッチ
  6
CONTINUOUS
 62
   18
 10
617.79909182208371
 20
263.75104632029115
 11
607.79908357408954
 21
253.75103807229698
  0
LINE
  8
_0-7_ハッチ
  6
CONTINUOUS
 62
   18
 10
607.79908357408954
 20
263.75104632029115
 11
617.79909182208371
 21
253.75103807229709
  0
LINE
  8
_0-7_ハッチ
  6
CONTINUOUS
 62
   18
 10
607.79908357408954
 20
261.62972597673149
 11
617.79909182208371
 21
251.62971772873743
  0
LINE
  8
_0-7_ハッチ
  6
CONTINUOUS
 62
   18
 10
617.79909182208371
 20
261.62972597673149
 11
607.79909182208371
 21
251.62972597673144
  0
LINE
  8
_0-7_ハッチ
  6
CONTINUOUS
 62
   18
 10
607.79909182208371
 20
333.00223842930711
 11
609.45772594935966
 21
331.34360430203105
  0
LINE
  8
_0-7_ハッチ
  6
CONTINUOUS
 62
   18
 10
607.79909182208371
 20
334.41645199168028
 11
610.87193951173288
 21
331.34360430203105
  0
LINE
  8
_0-7_ハッチ
  6
CONTINUOUS
 62
   18
 10
580.88209182208391
 20
238.34360430203111
 11
563.79909182208371
 21
255.42660430203114
  0
LINE
  8
_0-7_ハッチ
  6
CONTINUOUS
 62
   18
 10
607.79909182208371
 20
319.18967775486072
 11
583.64516527491367
 21
343.34360430203105
  0
LINE
  8
_0-7_ハッチ
  6
CONTINUOUS
 62
   18
 10
607.22513963149981
 20
238.94132485582236
 11
563.79909182208371
 21
282.36737266523846
  0
LINE
  8
_0-7_ハッチ
  6
CONTINUOUS
 62
   18
 10
607.79909182208371
 20
265.30814102844602
 11
576.76362854849867
 21
296.343604302031
  0
TEXT
  8
_0-d_寸法
 62
    4
 10
529.07497167162342
 20
311.49107199917808
 40
9
 41
1
 50
90
  1
47
  0
TEXT
  8
_0-d_寸法
 62
    4
 10
529.68423216416932
 20
254.96098267742127
 40
9
 41
1
 50
90
  1
58
  0
LINE
  8
_0-d_寸法
  6
CONTINUOUS
 62
   18
 10
530.70209182208384
 20
343.34360430203105
 11
530.70209182208384
 21
281.50160431091575
  0
LINE
  8
_0-d_寸法
  6
CONTINUOUS
 62
   18
 10
530.70209182208384
 20
281.50160431091575
 11
530.70209182208384
 21
238.34360430203105
  0
CIRCLE
  8
_0-d_寸法
  6
CONTINUOUS
 62
   18
 10
530.70209182208384
 20
238.34360430203105
 40
1.7254760742187489
  0
LINE
  8
_0-d_寸法
  6
CONTINUOUS
 62
   18
 10
530.70209182208384
 20
348.11360428426133
 11
530.70209182208384
 21
343.34360430203105
  0
LINE
  8
_0-d_寸法
  6
CONTINUOUS
 62
   18
 10
532.43209183985346
 20
343.34360430203105
 11
524.70209184443547
 21
343.34360430203105
  0
CIRCLE
  8
_0-d_寸法
  6
CONTINUOUS
 62
   18
 10
530.70209182208384
 20
343.34360430203105
 40
1.7254760742187489
  0
LINE
  8
_0-d_寸法
  6
CONTINUOUS
 62
   18
 10
530.70209182208384
 20
238.34360430203105
 11
530.70209182208384
 21
233.57360431980072
  0
LINE
  8
_0-d_寸法
  6
CONTINUOUS
 62
   18
 10
528.93209183985346
 20
238.34360430203105
 11
524.70209184443547
 21
238.34360430203105
  0
LINE
  8
_0-d_寸法
  6
CONTINUOUS
 62
   18
 10
554.06380303343212
 20
296.343604302031
 11
524.70209184443547
 21
296.343604302031
  0
CIRCLE
  8
_0-d_寸法
  6
CONTINUOUS
 62
   18
 10
530.70209182208384
 20
296.343604302031
 40
1.7254760742187489
  0
LINE
  8
_0-1_躯体
  6
CONTINUOUS
 62
    7
 10
677.79909182208371
 20
361.34360430203105
 11
632.79909182208371
 21
361.34360430203105
  0
LINE
  8
_0-1_躯体
  6
CONTINUOUS
 62
    7
 10
632.79909182208371
 20
361.34360430203105
 11
632.79909182208371
 21
343.34360430203105
  0
LINE
  8
_0-1_躯体
  6
CONTINUOUS
 62
    7
 10
632.79909182208371
 20
343.34360430203105
 11
677.79909182208371
 21
343.34360430203105
  0
LINE
  8
_0-1_躯体
  6
CONTINUOUS
 62
    7
 10
677.79909182208371
 20
343.34360430203105
 11
677.79909182208371
 21
361.34360430203105
  0
LINE
  8
_0-3_雑工事
  6
CONTINUOUS
 62
    7
 10
607.79909182208371
 20
331.34360430203105
 11
607.79909182208371
 21
341.34360430203094
  0
LINE
  8
_0-3_雑工事
  6
CONTINUOUS
 62
    7
 10
607.79909182208371
 20
341.34360430203094
 11
608.79909182208371
 21
340.34360430203105
  0
LINE
  8
_0-3_雑工事
  6
CONTINUOUS
 62
    7
 10
608.79909182208371
 20
340.34360430203105
 11
615.09909182208355
 21
340.34360430203105
  0
LINE
  8
_0-3_雑工事
  6
CONTINUOUS
 62
    7
 10
615.09909182208355
 20
340.34360430203105
 11
617.79909182208371
 21
343.34360430203105
  0
LINE
  8
_0-3_雑工事
  6
CONTINUOUS
 62
    7
 10
617.79909182208371
 20
343.34360430203105
 11
617.79909182208371
 21
331.34360430203105
  0
LINE
  8
_0-3_雑工事
  6
CONTINUOUS
 62
    7
 10
617.79909182208371
 20
331.34360430203105
 11
607.79909182208371
 21
331.34360430203105
  0
LINE
  8
_0-2_造作工事
  6
CONTINUOUS
 62
    7
 10
617.79909182208371
 20
238.34360430203105
 11
592.79909182208371
 21
238.34360430203105
  0
LINE
  8
_0-2_造作工事
  6
CONTINUOUS
 62
    7
 10
617.79909182208371
 20
331.34360430203105
 11
617.79909182208371
 21
251.34360430203111
  0
LINE
  8
_0-1_躯体
  6
CONTINUOUS
 62
    7
 10
722.79909182208371
 20
343.34360430203105
 11
722.79909182208371
 21
238.34360430203105
  0
LINE
  8
_0-1_躯体
  6
CONTINUOUS
 62
    7
 10
617.79909182208371
 20
238.34360430203105
 11
722.79909182208371
 21
238.34360430203105
  0
LINE
  8
_0-1_躯体
  6
CONTINUOUS
 62
   18
 10
722.79909182208371
 20
238.34360430203105
 11
617.79909182208371
 21
343.34360430203094
  0
LINE
  8
_0-1_躯体
  6
CONTINUOUS
 62
   18
 10
617.79909182208371
 20
238.34360430203105
 11
722.79909182208371
 21
343.34360430203094
  0
LINE
  8
_0-1_躯体
  6
CONTINUOUS
 62
    7
 10
605.79909182208371
 20
238.34360430203105
 11
733.79909182208348
 21
238.34360430203105
  0
LINE
  8
_0-1_躯体
  6
CONTINUOUS
 62
    7
 10
647.52370249284104
 20
361.34360430203105
 11
733.79909182208348
 21
361.34360430203105
  0
LINE
  8
_0-1_躯体
  6
CONTINUOUS
 62
   18
 10
677.79909182208371
 20
343.34360430203105
 11
632.79909182208371
 21
361.34360430203094
  0
LINE
  8
_0-0_本体
  6
CONTINUOUS
 62
   18
 10
554.79909182208371
 20
298.34360430203105
 11
554.79909182208371
 21
301.34360430203105
  0
LINE
  8
_0-0_本体
  6
CONTINUOUS
 62
   18
 10
559.79909182208371
 20
298.34360430203105
 11
554.79909182208371
 21
298.34360430203105
  0
LINE
  8
_0-0_本体
  6
CONTINUOUS
 62
    7
 10
555.54909182208371
 20
298.84377524345012
 11
555.54909182208371
 21
300.59360430203105
  0
LINE
  8
_0-0_本体
  6
CONTINUOUS
 62
    7
 10
575.99943370492201
 20
297.09360430203105
 11
564.29909182208348
 21
297.09360430203105
  0
LINE
  8
_0-0_本体
  6
CONTINUOUS
 62
    7
 10
563.04909182208371
 20
295.34360430203105
 11
563.04909182208371
 21
295.843604302031
  0
LINE
  8
_0-0_本体
  6
CONTINUOUS
 62
    7
 10
560.54909182208371
 20
295.34360430203105
 11
560.54909182208371
 21
300.59360430203105
  0
LINE
  8
_0-0_本体
  6
CONTINUOUS
 62
    7
 10
576.07338775456265
 20
299.05022690177731
 11
576.08901126312639
 21
299.0396742949705
  0
ARC
  8
_0-0_本体
  6
CONTINUOUS
 62
    7
 10
575.99943370492201
 20
297.843604302031
 40
0.75
 50
270
 51
0
  0
ARC
  8
_0-0_本体
  6
CONTINUOUS
 62
    7
 10
561.79909182208371
 20
295.34360430203105
 40
1.25
 50
270
 51
0
  0
ARC
  8
_0-0_本体
  6
CONTINUOUS
 62
    7
 10
561.79909182208371
 20
295.34360430203105
 40
1.25
 50
180
 51
270
  0
ARC
  8
_0-0_本体
  6
CONTINUOUS
 62
    7
 10
564.29909182208348
 20
295.843604302031
 40
1.25
 50
90
 51
180
  0
LINE
  8
_0-0_本体
  6
CONTINUOUS
 62
   18
 10
605.79909182208371
 20
238.34360430203105
 11
515.99909182208376
 21
238.34360430203105
  0
ARC
  8
_0-0_本体
  6
CONTINUOUS
 62
    7
 10
575.24943370492201
 20
297.79664994936837
 40
1.5
 50
0
 51
55.963676462531339
  0
LINE
  8
_0-0_本体
  6
CONTINUOUS
 62
    7
 10
575.36333181961118
 20
299.45192690779783
 11
576.07338775456265
 21
299.05022690177731
  0
LINE
  8
_0-0_本体
  6
CONTINUOUS
 62
    7
 10
574.62371818546478
 20
299.79618552828657
 11
575.36333181961118
 21
299.45192690779783
  0
LINE
  8
_0-0_本体
  6
CONTINUOUS
 62
    7
 10
573.85918447406277
 20
300.08084414791051
 11
574.62371818546478
 21
299.79618552828657
  0
LINE
  8
_0-0_本体
  6
CONTINUOUS
 62
    7
 10
573.07452456446595
 20
300.30411786304029
 11
573.85918447406277
 21
300.08084414791051
  0
LINE
  8
_0-0_本体
  6
CONTINUOUS
 62
    7
 10
572.27465853364993
 20
300.46460667368689
 11
573.07452456446595
 21
300.30411786304029
  0
LINE
  8
_0-0_本体
  6
CONTINUOUS
 62
    7
 10
571.46460180599558
 20
300.5613042619633
 11
572.27465853364993
 21
300.46460667368689
  0
LINE
  8
_0-0_本体
  6
CONTINUOUS
 62
    7
 10
570.64943370492188
 20
300.59360430203105
 11
571.46460180599558
 21
300.5613042619633
  0
LINE
  8
_0-0_本体
  6
CONTINUOUS
 62
    7
 10
555.54909182208371
 20
300.59360430203105
 11
570.64943370492188
 21
300.59360430203105
  0
ARC
  8
_0-0_本体
  6
CONTINUOUS
 62
   18
 10
565.7990918220836
 20
240.34360430203105
 40
2
 50
180
 51
270
  0
LINE
  8
_0-0_本体
  6
CONTINUOUS
 62
   18
 10
605.79909182208371
 20
238.34360430203105
 11
565.7990918220836
 21
238.34360430203105
  0
ARC
  8
_0-0_本体
  6
CONTINUOUS
 62
   18
 10
605.79909182208371
 20
240.34360430203105
 40
2
 50
270
 51
0
  0
LINE
  8
_0-0_本体
  6
CONTINUOUS
 62
   18
 10
607.79909182208371
 20
341.34360430203105
 11
607.79909182208371
 21
240.34360430203105
  0
ARC
  8
_0-0_本体
  6
CONTINUOUS
 62
   18
 10
605.79909182208371
 20
341.34360430203105
 40
2
 50
0
 51
90
  0
LINE
  8
_0-3_雑工事
  6
CONTINUOUS
 62
    7
 10
634.59909182208366
 20
373.343604302031
 11
632.79909182208371
 21
375.343604302031
  0
LINE
  8
_0-7_ハッチ
  6
CONTINUOUS
 62
   18
 10
636.3120305700611
 20
361.34360430203105
 11
644.79909182208371
 21
369.83066555405333
  0
LINE
  8
_0-7_ハッチ
  6
CONTINUOUS
 62
   18
 10
637.7262441324342
 20
361.34360430203105
 11
644.79909182208371
 21
368.41645199168022
  0
LINE
  8
_0-7_ハッチ
  6
CONTINUOUS
 62
   18
 10
634.89781700768799
 20
361.34360430203105
 11
644.79909182208371
 21
371.24487911642643
  0
LINE
  8
_0-7_ハッチ
  6
CONTINUOUS
 62
   18
 10
633.483603445315
 20
361.34360430203105
 11
644.79909182208371
 21
372.65909267879954
  0
LINE
  8
_0-7_ハッチ
  6
CONTINUOUS
 62
   18
 10
640.55467125717996
 20
361.34360430203105
 11
644.79909182208371
 21
365.58802486693389
  0
LINE
  8
_0-7_ハッチ
  6
CONTINUOUS
 62
   18
 10
639.14045769480731
 20
361.34360430203105
 11
644.79909182208371
 21
367.00223842930706
  0
LINE
  8
_0-7_ハッチ
  6
CONTINUOUS
 62
   18
 10
643.38309838192652
 20
361.34360430203105
 11
644.7990918220836
 21
362.75959774218774
  0
LINE
  8
_0-7_ハッチ
  6
CONTINUOUS
 62
   18
 10
641.9688848195533
 20
361.34360430203105
 11
644.7990918220836
 21
364.17381130456079
  0
LINE
  8
_0-3_雑工事
  6
CONTINUOUS
 62
    7
 10
632.79909182208371
 20
361.34360430203105
 11
632.79909182208371
 21
375.343604302031
  0
LINE
  8
_0-3_雑工事
  6
CONTINUOUS
 62
    7
 10
644.79909182208371
 20
361.34360430203105
 11
632.79909182208371
 21
361.34360430203105
  0
LINE
  8
_0-7_ハッチ
  6
CONTINUOUS
 62
   18
 10
635.31320703133656
 20
361.34360430203151
 11
632.79909182208371
 21
363.85771951128424
  0
LINE
  8
_0-7_ハッチ
  6
CONTINUOUS
 62
   18
 10
639.5558477184552
 20
361.34360430203105
 11
632.79909182208371
 21
368.10036019840186
  0
LINE
  8
_0-7_ハッチ
  6
CONTINUOUS
 62
   18
 10
636.72742059370933
 20
361.34360430203145
 11
632.79909182208371
 21
365.27193307365678
  0
LINE
  8
_0-7_ハッチ
  6
CONTINUOUS
 62
   18
 10
638.14163415608232
 20
361.34360430203117
 11
632.79909182208371
 21
366.68614663602943
  0
LINE
  8
_0-7_ハッチ
  6
CONTINUOUS
 62
   18
 10
632.79909182208371
 20
362.07330624117276
 11
644.79909182208371
 21
374.07330624117265
  0
LINE
  8
_0-7_ハッチ
  6
CONTINUOUS
 62
   18
 10
644.79909182208371
 20
361.75721444789451
 11
632.79909182208371
 21
373.75721444789463
  0
LINE
  8
_0-7_ハッチ
  6
CONTINUOUS
 62
   18
 10
643.79848840557406
 20
361.34360430203105
 11
632.79909182208371
 21
372.34300088552152
  0
LINE
  8
_0-7_ハッチ
  6
CONTINUOUS
 62
   18
 10
640.97006128082785
 20
361.34360430203105
 11
632.79909182208371
 21
369.51457376077525
  0
LINE
  8
_0-7_ハッチ
  6
CONTINUOUS
 62
   18
 10
642.38427484320107
 20
361.34360430203105
 11
632.79909182208371
 21
370.92878732314841
  0
LINE
  8
_0-3_雑工事
  6
CONTINUOUS
 62
    7
 10
642.99909182208353
 20
373.343604302031
 11
644.79909182208371
 21
375.343604302031
  0
LINE
  8
_0-7_ハッチ
  6
CONTINUOUS
 62
    7
 10
634.59909182208366
 20
373.343604302031
 11
642.99909182208353
 21
373.343604302031
  0
LINE
  8
_0-7_ハッチ
  6
CONTINUOUS
 62
   18
 10
632.79909182208371
 20
363.48751980354575
 11
642.6551763205689
 21
373.343604302031
  0
LINE
  8
_0-7_ハッチ
  6
CONTINUOUS
 62
   18
 10
644.79909182208371
 20
370.24249582213292
 11
641.69798334218569
 21
373.343604302031
  0
LINE
  8
_0-7_ハッチ
  6
CONTINUOUS
 62
   18
 10
632.79909182208371
 20
364.90173336591897
 11
641.24096275819579
 21
373.343604302031
  0
LINE
  8
_0-7_ハッチ
  6
CONTINUOUS
 62
   18
 10
644.79909182208371
 20
368.82828225976016
 11
640.2837697798127
 21
373.343604302031
  0
LINE
  8
_0-7_ハッチ
  6
CONTINUOUS
 62
   18
 10
632.79909182208371
 20
366.31594692829208
 11
639.82674919582269
 21
373.343604302031
  0
LINE
  8
_0-7_ハッチ
  6
CONTINUOUS
 62
   18
 10
644.79909182208371
 20
367.41406869738694
 11
638.86955621743959
 21
373.343604302031
  0
LINE
  8
_0-7_ハッチ
  6
CONTINUOUS
 62
   18
 10
644.79909182208371
 20
365.99985513501389
 11
637.4553426550666
 21
373.343604302031
  0
LINE
  8
_0-7_ハッチ
  6
CONTINUOUS
 62
   18
 10
632.79909182208371
 20
369.14437405303823
 11
636.99832207107647
 21
373.343604302031
  0
LINE
  8
_0-7_ハッチ
  6
CONTINUOUS
 62
   18
 10
632.79909182208371
 20
370.55858761541128
 11
635.58410850870337
 21
373.343604302031
  0
LINE
  8
_0-7_ハッチ
  6
CONTINUOUS
 62
   18
 10
644.79909182208371
 20
364.58564157264072
 11
636.04112909269338
 21
373.343604302031
  0
LINE
  8
_0-7_ハッチ
  6
CONTINUOUS
 62
   18
 10
632.79909182208371
 20
367.73016049066507
 11
638.41253563344958
 21
373.343604302031
  0
LINE
  8
_0-7_ハッチ
  6
CONTINUOUS
 62
   18
 10
632.79909182208371
 20
371.97280117778445
 11
634.39840523832527
 21
373.572114594026
  0
LINE
  8
_0-7_ハッチ
  6
CONTINUOUS
 62
   18
 10
634.34867844795474
 20
373.62184138439648
 11
632.79909182208371
 21
375.17142801026756
  0
LINE
  8
_0-7_ハッチ
  6
CONTINUOUS
 62
   18
 10
632.79909182208371
 20
373.3870147401575
 11
633.72589740402373
 21
374.31382032209757
  0
LINE
  8
_0-7_ハッチ
  6
CONTINUOUS
 62
   18
 10
632.79909182208371
 20
374.80122830253049
 11
633.0560067692154
 21
375.05814324966235
  0
LINE
  8
_0-7_ハッチ
  6
CONTINUOUS
 62
   18
 10
644.79909182208371
 20
363.17142801026762
 11
634.62691553032028
 21
373.343604302031
  0
LINE
  8
_0-7_ハッチ
  6
CONTINUOUS
 62
   18
 10
644.79909182208371
 20
371.65670938450592
 11
643.05266791378222
 21
373.40313329280735
  0
LINE
  8
_0-7_ハッチ
  6
CONTINUOUS
 62
   18
 10
644.79909182208371
 20
373.07092294687902
 11
643.72255854859065
 21
374.14745622037208
  0
LINE
  8
_0-7_ハッチ
  6
CONTINUOUS
 62
   18
 10
644.79909182208371
 20
374.48513650925202
 11
644.39244918339887
 21
374.89177914793686
  0
LINE
  8
_0-1_躯体
  6
CONTINUOUS
 62
    7
 10
644.79909182208371
 20
375.343604302031
 11
733.79909182208348
 21
375.343604302031
  0
LINE
  8
_0-3_雑工事
  6
CONTINUOUS
 62
    7
 10
644.79909182208371
 20
375.343604302031
 11
644.79909182208371
 21
361.34360430203105
  0
LINE
  8
_0-2_造作工事
  6
CONTINUOUS
 62
    7
 10
632.79909182208371
 20
343.34360430203105
 11
632.79909182208371
 21
383.34360430203088
  0
LINE
  8
_0-2_造作工事
  6
CONTINUOUS
 62
    7
 10
632.79909182208371
 20
343.34360430203105
 11
597.7990918220836
 21
343.34360430203105
  0
LINE
  8
_0-2_造作工事
  6
CONTINUOUS
 62
    7
 10
597.7990918220836
 20
343.34360430203105
 11
597.7990918220836
 21
383.34360430203088
  0
LINE
  8
_0-2_造作工事
  6
CONTINUOUS
 62
    7
 10
632.79909182208371
 20
383.34360430203088
 11
597.7990918220836
 21
383.34360430203088
  0
LINE
  8
_0-7_ハッチ
  6
CONTINUOUS
 62
   18
 10
613.07027982183399
 20
343.07241630228077
 11
612.7990918220836
 21
342.8012283025306
  0
LINE
  8
_0-7_ハッチ
  6
CONTINUOUS
 62
   18
 10
600.08713583265171
 20
383.34360430203088
 11
597.7990918220836
 21
381.05556029146294
  0
LINE
  8
_0-7_ハッチ
  6
CONTINUOUS
 62
   18
 10
607.15820364451713
 20
383.34360430203088
 11
597.7990918220836
 21
373.98449247959746
  0
LINE
  8
_0-7_ハッチ
  6
CONTINUOUS
 62
   18
 10
614.22927145638255
 20
383.34360430203088
 11
597.7990918220836
 21
366.91342466773199
  0
LINE
  8
_0-7_ハッチ
  6
CONTINUOUS
 62
   18
 10
621.30033926824808
 20
383.34360430203088
 11
597.7990918220836
 21
359.84235685586651
  0
LINE
  8
_0-7_ハッチ
  6
CONTINUOUS
 62
   18
 10
628.37140708011361
 20
383.34360430203088
 11
597.7990918220836
 21
352.77128904400104
  0
LINE
  8
_0-7_ハッチ
  6
CONTINUOUS
 62
   18
 10
632.79909182208371
 20
380.70022123213556
 11
597.7990918220836
 21
345.7002212321355
  0
LINE
  8
_0-7_ハッチ
  6
CONTINUOUS
 62
   18
 10
632.79909182208371
 20
345.34488217280818
 11
630.79781395130647
 21
343.34360430203105
  0
LINE
  8
_0-7_ハッチ
  6
CONTINUOUS
 62
   18
 10
632.79909182208371
 20
366.55808560840461
 11
609.58461051570998
 21
343.34360430203105
  0
LINE
  8
_0-7_ハッチ
  6
CONTINUOUS
 62
   18
 10
632.79909182208371
 20
359.48701779653913
 11
616.65567832757552
 21
343.34360430203105
  0
LINE
  8
_0-7_ハッチ
  6
CONTINUOUS
 62
   18
 10
632.79909182208371
 20
352.41594998467366
 11
623.72674613944105
 21
343.34360430203105
  0
LINE
  8
_0-7_ハッチ
  6
CONTINUOUS
 62
   18
 10
632.79909182208371
 20
373.62915342027009
 11
602.51354270384456
 21
343.34360430203105
  0
LINE
  8
_0-3_雑工事
  6
CENTER1
 62
    7
 10
617.79909182208371
 20
341.84360430203105
 11
733.7990918220836
 21
341.84360430203105
  0
LINE
  8
_0-3_雑工事
  6
PHANTOM1
 62
    7
 10
597.7990918220836
 20
344.84360430203105
 11
733.7990918220836
 21
344.84360430203105
  0
SOLID
  8
_0-f_
  6
CONTINUOUS
 62
    7
 10
694.31820713622778
 20
342.23284831625847
 11
701.16823723019672
 21
335.13943450357601
 12
696.7038003079515
 22
332.66475670793557
 13
696.7038003079515
 23
332.66475670793557
  0
TEXT
  8
_0-e_文字
 62
    7
 10
623.65810725883921
 20
242.39820301882966
 40
9
 41
1
 50
0
  1
105x105
  0
SOLID
  8
_0-f_
  6
CONTINUOUS
 62
    7
 10
638.79645028807249
 20
373.73403611339563
 11
645.64648038204132
 21
380.82744992607809
 12
641.1820434597962
 22
383.30212772171853
 13
641.1820434597962
 23
383.30212772171853
  0
LINE
  8
_0-f_
  6
CONTINUOUS
 62
    7
 10
665.35129385516723
 20
397.20109533728794
 11
652.34512998057755
 21
397.20109533728794
  0
LINE
  8
_0-f_
  6
CONTINUOUS
 62
    7
 10
652.34512998057755
 20
397.20109533728794
 11
638.79645028807249
 21
373.73403611339563
  0
TEXT
  8
_0-e_文字
 62
    4
 10
726.90055190877104
 20
383.38211709990918
 40
7.4999999999999574
 41
1.0000000000000051
 50
0
  1
(建築工事)
  0
LINE
  8
_0-7_ハッチ
  6
CONTINUOUS
 62
   18
 10
367.60509182208375
 20
338.52182466052034
 11
372.42687146359447
 21
343.34360430203105
  0
LINE
  8
_0-0_本体
  6
CONTINUOUS
 62
   18
 10
605.79909182208371
 20
343.34360430203105
 11
583.28659182208366
 21
343.34360430203105
  0
LINE
  8
_0-0_本体
  6
CONTINUOUS
 62
   18
 10
563.79909182208371
 20
296.343604302031
 11
579.28659182208366
 21
296.343604302031
  0
LINE
  8
_0-7_ハッチ
  6
CONTINUOUS
 62
   18
 10
609.67598335274602
 20
321.34360430203105
 11
607.79908357408954
 21
319.46670452337452
  0
LINE
  8
_0-7_ハッチ
  6
CONTINUOUS
 62
   18
 10
609.55823101274814
 20
321.34360430203105
 11
617.79909182208371
 21
313.10274349269559
  0
LINE
  8
_0-7_ハッチ
  6
CONTINUOUS
 62
   18
 10
611.79730369630579
 20
321.34360430203105
 11
607.79908357408954
 21
317.34538417981491
  0
LINE
  8
_0-7_ハッチ
  6
CONTINUOUS
 62
   18
 10
611.6795513563078
 20
321.34360430203105
 11
617.79909182208371
 21
315.22406383625525
  0
LINE
  8
_0-7_ハッチ
  6
CONTINUOUS
 62
   18
 10
613.91862403986534
 20
321.34360430203105
 11
607.79908357408954
 21
315.22406383625525
  0
LINE
  8
_0-7_ハッチ
  6
CONTINUOUS
 62
   18
 10
613.80087169986746
 20
321.34360430203105
 11
617.79909182208371
 21
317.34538417981491
  0
LINE
  8
_0-7_ハッチ
  6
CONTINUOUS
 62
   18
 10
616.03994438342511
 20
321.34360430203105
 11
607.79908357408954
 21
313.10274349269554
  0
LINE
  8
_0-7_ハッチ
  6
CONTINUOUS
 62
   18
 10
615.92219204342712
 20
321.34360430203105
 11
617.79909182208371
 21
319.46670452337452
  0
CIRCLE
  8
_0-3_雑工事
  6
CONTINUOUS
 62
    7
 10
612.79909182208371
 20
326.34360430203105
 40
4.9999999999999929
  0
LINE
  8
_0-7_ハッチ
  6
CONTINUOUS
 62
   18
 10
608.1445079105066
 20
324.51744751520027
 11
614.62524860891438
 21
330.9981882136081
  0
LINE
  8
_0-7_ハッチ
  6
CONTINUOUS
 62
   18
 10
607.84934435377784
 20
325.63649752084467
 11
613.50619860327004
 21
331.29335177033693
  0
LINE
  8
_0-7_ハッチ
  6
CONTINUOUS
 62
   18
 10
607.84934435377795
 20
327.05071108321783
 11
612.09198504089682
 21
331.29335177033681
  0
LINE
  8
_0-7_ハッチ
  6
CONTINUOUS
 62
   18
 10
609.26355791615094
 20
322.80807039609834
 11
616.33462572801636
 21
329.87913820796376
  0
LINE
  8
_0-7_ハッチ
  6
CONTINUOUS
 62
   18
 10
608.62788342575936
 20
323.58660946807987
 11
615.55608665603484
 21
330.5148126983554
  0
LINE
  8
_0-7_ハッチ
  6
CONTINUOUS
 62
   18
 10
610.04209698813247
 20
322.17239590570682
 11
616.97030021840806
 21
329.10059913598229
  0
LINE
  8
_0-7_ハッチ
  6
CONTINUOUS
 62
   18
 10
610.97293503525293
 20
330.99818821360805
 11
617.4536757336607
 21
324.51744751520016
  0
LINE
  8
_0-7_ハッチ
  6
CONTINUOUS
 62
   18
 10
612.09198504089727
 20
331.29335177033687
 11
617.74883929038947
 21
325.6364975208445
  0
LINE
  8
_0-7_ハッチ
  6
CONTINUOUS
 62
   18
 10
613.50619860327038
 20
331.29335177033681
 11
617.74883929038947
 21
327.05071108321772
  0
LINE
  8
_0-7_ハッチ
  6
CONTINUOUS
 62
   18
 10
609.26355791615094
 20
329.87913820796376
 11
616.33462572801636
 21
322.80807039609829
  0
LINE
  8
_0-7_ハッチ
  6
CONTINUOUS
 62
   18
 10
610.04209698813247
 20
330.51481269835534
 11
616.97030021840806
 21
323.58660946807981
  0
LINE
  8
_0-7_ハッチ
  6
CONTINUOUS
 62
   18
 10
608.62788342575936
 20
329.10059913598218
 11
615.55608665603484
 21
322.17239590570671
  0
LINE
  8
_0-7_ハッチ
  6
CONTINUOUS
 62
   18
 10
608.1445079105066
 20
328.16976108886178
 11
614.62524860891449
 21
321.68902039045395
  0
LINE
  8
_0-7_ハッチ
  6
CONTINUOUS
 62
   18
 10
607.84934435377784
 20
327.05071108321744
 11
613.50619860327015
 21
321.39385683372518
  0
LINE
  8
_0-7_ハッチ
  6
CONTINUOUS
 62
   18
 10
607.84934435377795
 20
325.63649752084422
 11
612.09198504089682
 21
321.39385683372529
  0
LINE
  8
_0-7_ハッチ
  6
CONTINUOUS
 62
   18
 10
610.97293503525282
 20
321.68902039045406
 11
617.4536757336607
 21
328.16976108886195
  0
LINE
  8
_0-7_ハッチ
  6
CONTINUOUS
 62
   18
 10
613.50619860327015
 20
321.39385683372518
 11
617.74883929038958
 21
325.6364975208445
  0
LINE
  8
_0-7_ハッチ
  6
CONTINUOUS
 62
   18
 10
612.09198504089704
 20
321.39385683372518
 11
617.74883929038947
 21
327.05071108321761
  0
LINE
  8
ADD_LINE
  6
DOT
 62
    9
 10
612.79909182208371
 20
321.34360430203105
 11
612.79909182208371
 21
331.34360430203105
  0
LINE
  8
ADD_LINE
  6
DOT
 62
    9
 10
607.79909182208371
 20
326.34360430203105
 11
617.79909182208371
 21
326.34360430203105
  0
LINE
  8
_0-3_雑工事
  6
CONTINUOUS
 62
    7
 10
357.60509182208375
 20
321.34360430203105
 11
367.60509182208369
 21
321.34360430203105
  0
LINE
  8
_0-7_ハッチ
  6
CONTINUOUS
 62
   18
 10
367.60509182208369
 20
331.58802486693389
 11
367.3606712571808
 21
331.34360430203105
  0
LINE
  8
_0-7_ハッチ
  6
CONTINUOUS
 62
   18
 10
367.25967573366074
 20
324.51744751520027
 11
360.77893503525303
 21
330.9981882136081
  0
LINE
  8
_0-7_ハッチ
  6
CONTINUOUS
 62
   18
 10
367.55483929038957
 20
325.63649752084467
 11
361.89798504089737
 21
331.29335177033693
  0
LINE
  8
_0-7_ハッチ
  6
CONTINUOUS
 62
   18
 10
367.55483929038951
 20
327.05071108321783
 11
363.31219860327064
 21
331.29335177033681
  0
LINE
  8
_0-7_ハッチ
  6
CONTINUOUS
 62
   18
 10
366.14062572801646
 20
322.80807039609834
 11
359.06955791615098
 21
329.87913820796376
  0
LINE
  8
_0-7_ハッチ
  6
CONTINUOUS
 62
   18
 10
366.77630021840798
 20
323.58660946807987
 11
359.84809698813257
 21
330.5148126983554
  0
LINE
  8
_0-7_ハッチ
  6
CONTINUOUS
 62
   18
 10
365.36208665603493
 20
322.17239590570682
 11
358.4338834257594
 21
329.10059913598229
  0
LINE
  8
_0-7_ハッチ
  6
CONTINUOUS
 62
   18
 10
364.43124860891453
 20
330.99818821360805
 11
357.9505079105067
 21
324.51744751520016
  0
LINE
  8
_0-7_ハッチ
  6
CONTINUOUS
 62
   18
 10
363.31219860327019
 20
331.29335177033687
 11
357.65534435377788
 21
325.6364975208445
  0
LINE
  8
_0-7_ハッチ
  6
CONTINUOUS
 62
   18
 10
361.89798504089703
 20
331.29335177033681
 11
357.65534435377788
 21
327.05071108321772
  0
LINE
  8
_0-7_ハッチ
  6
CONTINUOUS
 62
   18
 10
366.1406257280164
 20
329.87913820796376
 11
359.06955791615098
 21
322.80807039609829
  0
LINE
  8
_0-7_ハッチ
  6
CONTINUOUS
 62
   18
 10
365.36208665603493
 20
330.51481269835534
 11
358.43388342575946
 21
323.58660946807981
  0
LINE
  8
_0-7_ハッチ
  6
CONTINUOUS
 62
   18
 10
366.77630021840798
 20
329.10059913598218
 11
359.84809698813251
 21
322.17239590570671
  0
LINE
  8
_0-7_ハッチ
  6
CONTINUOUS
 62
   18
 10
367.25967573366074
 20
328.16976108886178
 11
360.77893503525297
 21
321.68902039045395
  0
LINE
  8
_0-7_ハッチ
  6
CONTINUOUS
 62
   18
 10
367.55483929038957
 20
327.05071108321744
 11
361.89798504089731
 21
321.39385683372518
  0
LINE
  8
_0-7_ハッチ
  6
CONTINUOUS
 62
   18
 10
367.55483929038951
 20
325.63649752084422
 11
363.31219860327064
 21
321.39385683372529
  0
LINE
  8
_0-7_ハッチ
  6
CONTINUOUS
 62
   18
 10
364.43124860891464
 20
321.68902039045406
 11
357.9505079105067
 21
328.16976108886195
  0
LINE
  8
_0-7_ハッチ
  6
CONTINUOUS
 62
   18
 10
361.89798504089725
 20
321.39385683372518
 11
357.65534435377788
 21
325.6364975208445
  0
LINE
  8
_0-7_ハッチ
  6
CONTINUOUS
 62
   18
 10
363.31219860327036
 20
321.39385683372518
 11
357.65534435377788
 21
327.05071108321761
  0
LINE
  8
ADD_LINE
  6
DOT
 62
    9
 10
362.60509182208375
 20
321.34360430203105
 11
362.60509182208375
 21
331.34360430203105
  0
LINE
  8
ADD_LINE
  6
DOT
 62
    9
 10
367.60509182208369
 20
326.34360430203105
 11
357.60509182208375
 21
326.34360430203105
  0
LINE
  8
_0-7_ハッチ
  6
CONTINUOUS
 62
   18
 10
359.48199160074023
 20
321.34360430203105
 11
357.60509182208375
 21
319.46670452337452
  0
LINE
  8
_0-7_ハッチ
  6
CONTINUOUS
 62
   18
 10
367.96727297497887
 20
321.34360430203105
 11
357.60509182208375
 21
310.98142314913594
  0
LINE
  8
_0-7_ハッチ
  6
CONTINUOUS
 62
   18
 10
363.72463228785955
 20
321.34360430203105
 11
357.60509182208375
 21
315.22406383625525
  0
LINE
  8
_0-7_ハッチ
  6
CONTINUOUS
 62
   18
 10
361.60331194429989
 20
321.34360430203105
 11
357.60509182208375
 21
317.34538417981491
  0
LINE
  8
_0-7_ハッチ
  6
CONTINUOUS
 62
   18
 10
361.48555960430201
 20
321.34360430203105
 11
367.60510007007781
 21
315.22406383625525
  0
LINE
  8
_0-7_ハッチ
  6
CONTINUOUS
 62
   18
 10
365.72820029142127
 20
321.34360430203105
 11
367.60510007007781
 21
319.46670452337452
  0
LINE
  8
_0-7_ハッチ
  6
CONTINUOUS
 62
   18
 10
363.60687994786167
 20
321.34360430203105
 11
367.60510007007781
 21
317.34538417981491
  0
LINE
  8
_0-7_ハッチ
  6
CONTINUOUS
 62
   18
 10
359.36423926074235
 20
321.34360430203105
 11
367.60510007007781
 21
313.10274349269554
  0
LINE
  8
_0-7_ハッチ
  6
CONTINUOUS
 62
   18
 10
365.84595263141921
 20
321.34360430203105
 11
357.60509182208375
 21
313.10274349269559
  0
LINE
  8
_0-7_ハッチ
  6
CONTINUOUS
 62
   18
 10
365.72820029142133
 20
321.34360430203105
 11
367.60510007007781
 21
319.46670452337452
  0
LINE
  8
_0-7_ハッチ
  6
CONTINUOUS
 62
   18
 10
359.48199160074029
 20
321.34360430203105
 11
357.60509182208375
 21
319.46670452337452
  0
LINE
  8
_0-7_ハッチ
  6
CONTINUOUS
 62
   18
 10
358.87538988294205
 20
331.34360430203105
 11
358.26497183804048
 21
330.73318625712955
  0
LINE
  8
_0-2_造作工事
  6
CONTINUOUS
 62
    7
 10
444.70209182208362
 20
284.11360428426144
 11
444.70209182208362
 21
279.34360430203105
  0
CIRCLE
  8
_0-2_造作工事
  6
CONTINUOUS
 62
    7
 10
444.70209182208362
 20
279.34360430203105
 40
1.7254760742187489
  0
CIRCLE
  8
_0-d_寸法
  6
CONTINUOUS
 62
   18
 10
444.70209182208362
 20
279.34360430203105
 40
1.7254760742187489
  0
LINE
  8
_0-0_本体
  6
CONTINUOUS
 62
   18
 10
418.43351894682991
 20
279.34360430203105
 11
462.20509182208377
 21
279.34360430203105
  0
LINE
  8
_0-2_造作工事
  6
CONTINUOUS
 62
    7
 10
442.97209180431406
 20
279.34360430203105
 11
450.70209179973199
 21
279.34360430203105
  0
LINE
  8
_0-d_寸法
  6
CONTINUOUS
 62
   18
 10
442.97209180431406
 20
279.34360430203105
 11
450.70209179973199
 21
279.34360430203105
  0
LINE
  8
_0-0_本体
  6
CONTINUOUS
 62
   18
 10
415.60509182208375
 20
282.17203142677727
 11
415.60509182208375
 21
298.50160431091581
  0
LINE
  8
_0-0_本体
  6
CONTINUOUS
 62
   18
 10
415.60509182208375
 20
282.17203142677727
 11
418.43351894682991
 21
279.34360430203105
  0
TEXT
  8
_0-d_寸法
 62
    4
 10
443.55991757840104
 20
254.96098267742127
 40
9
 41
1
 50
90
  1
41
  0
TEXT
  8
_0-d_寸法
 62
    4
 10
443.0119531812224
 20
307.20025520845331
 40
9
 41
1
 50
90
  1
64
  0
LINE
  8
_0-0_本体
  6
CONTINUOUS
 62
   18
 10
515.99909182208376
 20
279.34360430203105
 11
557.12866470622214
 21
279.34360430203105
  0
LINE
  8
_0-0_本体
  6
CONTINUOUS
 62
   18
 10
559.79909182208371
 20
282.01403141789251
 11
559.79909182208371
 21
298.34360430203105
  0
LINE
  8
_0-0_本体
  6
CONTINUOUS
 62
   18
 10
559.79909182208371
 20
282.01403141789251
 11
557.12866470622214
 21
279.34360430203105
  0
LINE
  8
_0-7_ハッチ
  6
CONTINUOUS
 62
   18
 10
607.79909182208371
 20
292.24890939165334
 11
581.18842550125714
 21
318.85957571247997
  0
TEXT
  8
_0-e_文字
 62
    7
 10
407.38901964603116
 20
195.69077724989359
 40
9
 41
1
 50
0
  1
内額縁
  0
TEXT
  8
_0-e_文字
 62
    4
 10
405.87712319303563
 20
187.09551838238235
 40
7.4999999999999574
 41
1.0000000000000049
 50
0
  1
(建築工事)
  0
LINE
  8
_0-f_
  6
CONTINUOUS
 62
    7
 10
406.78594697178738
 20
200.19862732833661
 11
383.98326501255895
 21
200.19862732833661
  0
LINE
  8
_0-f_
  6
CONTINUOUS
 62
    7
 10
383.98326501255895
 20
200.19862732833661
 11
374.90096696732957
 21
215.92960656496109
  0
TEXT
  8
_0-d_寸法
 62
    4
 10
386.3060306627134
 20
158.23562613572065
 40
10.500000000000043
 41
0.9999999999999877
 50
0
  1
44
  0
TEXT
  8
_0-d_寸法
 62
    4
 10
345.83640480069539
 20
147.80047913828693
 40
9
 41
1
 50
0
  1
10
  0
LINE
  8
_0-d_寸法
  6
CONTINUOUS
 62
   18
 10
367.60509182208364
 20
182.85637862989842
 11
367.60509182208364
 21
141.25637865225013
  0
LINE
  8
_0-d_寸法
  6
CONTINUOUS
 62
   18
 10
357.60509182208375
 20
182.85637862989842
 11
357.60509182208375
 21
141.25637865225013
  0
LINE
  8
_0-d_寸法
  6
CONTINUOUS
 62
   18
 10
352.83509183985336
 20
147.25637862989834
 11
357.60509182208375
 21
147.25637862989834
  0
CIRCLE
  8
_0-d_寸法
  6
CONTINUOUS
 62
   18
 10
357.60509182208375
 20
147.25637862989834
 40
1.7254760742187489
  0
CIRCLE
  8
_0-d_寸法
  6
CONTINUOUS
 62
   18
 10
367.60509182208364
 20
147.25637862989834
 40
1.7254760742187489
  0
LINE
  8
_0-d_寸法
  6
CONTINUOUS
 62
   18
 10
357.60509182208375
 20
147.25637862989834
 11
367.60509182208364
 21
147.25637862989834
  0
LINE
  8
_0-d_寸法
  6
CONTINUOUS
 62
   18
 10
411.60509182208375
 20
182.85637862989842
 11
411.60509182208375
 21
151.25637865225008
  0
LINE
  8
_0-d_寸法
  6
CONTINUOUS
 62
   18
 10
411.60509182208375
 20
157.25637862989834
 11
416.37509180431397
 21
157.25637862989834
  0
CIRCLE
  8
_0-d_寸法
  6
CONTINUOUS
 62
   18
 10
411.60509182208375
 20
157.25637862989834
 40
1.7254760742187489
  0
LINE
  8
_0-d_寸法
  6
CONTINUOUS
 62
   18
 10
362.83509183985336
 20
157.25637862989834
 11
367.60509182208364
 21
157.25637862989834
  0
CIRCLE
  8
_0-d_寸法
  6
CONTINUOUS
 62
   18
 10
367.60509182208364
 20
157.25637862989834
 40
1.7254760742187489
  0
LINE
  8
_0-d_寸法
  6
CONTINUOUS
 62
   18
 10
367.60509182208364
 20
157.25637862989834
 11
411.60509182208375
 21
157.25637862989834
  0
TEXT
  8
_0-d_寸法
 62
    4
 10
582.25208869420612
 20
158.17922412690987
 40
10.499999999999979
 41
0.9999999999999938
 50
0
  1
44
  0
TEXT
  8
_0-d_寸法
 62
    4
 10
619.45292371837286
 20
149.94185482182476
 40
9
 41
1
 50
0
  1
10
  0
TEXT
  8
_0-d_寸法
 62
    4
 10
465.4309585445165
 20
147.6419222494024
 40
9
 41
1
 50
0
  1
W＝988
  0
LINE
  8
_0-d_寸法
  6
CONTINUOUS
 62
   18
 10
367.60509182208364
 20
147.25637862989834
 11
617.79909182208371
 21
147.25637862989834
  0
LINE
  8
_0-d_寸法
  6
CONTINUOUS
 62
   18
 10
617.79909182208371
 20
182.85637862989842
 11
617.79909182208371
 21
141.25637865225013
  0
LINE
  8
_0-d_寸法
  6
CONTINUOUS
 62
   18
 10
622.56909180431398
 20
147.25637862989834
 11
617.79909182208371
 21
147.25637862989834
  0
CIRCLE
  8
_0-d_寸法
  6
CONTINUOUS
 62
   18
 10
617.79909182208371
 20
147.25637862989834
 40
1.7254760742187489
  0
LINE
  8
_0-d_寸法
  6
CONTINUOUS
 62
   18
 10
607.79909182208371
 20
182.85637862989842
 11
607.79909182208371
 21
141.25637865225013
  0
CIRCLE
  8
_0-d_寸法
  6
CONTINUOUS
 62
   18
 10
607.79909182208371
 20
147.25637862989834
 40
1.7254760742187489
  0
LINE
  8
_0-d_寸法
  6
CONTINUOUS
 62
   18
 10
563.79909182208371
 20
157.25637862989834
 11
559.02909183985344
 21
157.25637862989834
  0
CIRCLE
  8
_0-d_寸法
  6
CONTINUOUS
 62
   18
 10
563.79909182208371
 20
157.25637862989834
 40
1.7254760742187489
  0
LINE
  8
_0-d_寸法
  6
CONTINUOUS
 62
   18
 10
563.79909182208371
 20
182.85637862989842
 11
563.79909182208371
 21
151.25637865225008
  0
LINE
  8
_0-d_寸法
  6
CONTINUOUS
 62
   18
 10
612.56909180431398
 20
157.25637862989834
 11
607.79909182208371
 21
157.25637862989834
  0
CIRCLE
  8
_0-d_寸法
  6
CONTINUOUS
 62
   18
 10
607.79909182208371
 20
157.25637862989834
 40
1.7254760742187489
  0
LINE
  8
_0-d_寸法
  6
CONTINUOUS
 62
   18
 10
607.79909182208371
 20
157.25637862989834
 11
563.79909182208371
 21
157.25637862989834
  0
TEXT
  8
_0-e_文字
 62
    7
 10
666.95075850923126
 20
392.22175312840335
 40
9
 41
1
 50
0
  1
変成シリコーンシーリング
  0
TEXT
  8
_0-e_文字
 62
    7
 10
728.78315216009617
 20
326.5483973140112
 40
9
 41
1
 50
0
  1
防風シート
  0
TEXT
  8
_0-e_文字
 62
    4
 10
739.29950385901179
 20
317.40911406174996
 40
7.4999999999999574
 41
1.0000000000000051
 50
0
  1
(建築工事)
  0
LINE
  8
_0-f_
  6
CONTINUOUS
 62
    7
 10
700.94688307482988
 20
330.75161661268407
 11
694.31820713622778
 21
342.23284831625847
  0
LINE
  8
_0-f_
  6
CONTINUOUS
 62
    7
 10
727.64330472833376
 20
330.75161661268407
 11
700.94688307482988
 21
330.75161661268407
  0
TEXT
  8
_0-e_文字
 62
    4
 10
740.18380001716503
 20
297.05937078759882
 40
7.4999999999998295
 41
1.0000000000000218
 50
0
  1
(建築工事)
  0
SOLID
  8
_0-f_
  6
CONTINUOUS
 62
    7
 10
617.73718684986397
 20
336.52120137750387
 11
624.58721694383291
 21
329.42778756482136
 12
620.12278002158769
 22
326.95310976918097
 13
620.12278002158769
 23
326.95310976918097
  0
SOLID
  8
_0-f_
  6
CONTINUOUS
 62
    7
 10
617.44769920184126
 20
324.65220780857726
 11
624.2977292958102
 21
317.5587939958948
 12
619.83329237356497
 22
315.08411620025436
 13
619.83329237356497
 23
315.08411620025436
  0
LINE
  8
_0-f_
  6
CONTINUOUS
 62
    7
 10
633.49566429866741
 20
309.22665076723189
 11
617.73718684986397
 21
336.52120137750387
  0
LINE
  8
_0-f_
  6
CONTINUOUS
 62
    7
 10
678.22275088083222
 20
309.22665076723189
 11
633.49566429866741
 21
309.22665076723189
  0
LINE
  8
_0-f_
  6
CONTINUOUS
 62
    7
 10
638.32503334162607
 20
288.49151556294555
 11
617.44769920184126
 21
324.65220780857726
  0
LINE
  8
_0-f_
  6
CONTINUOUS
 62
    7
 10
726.94822052065808
 20
288.49151556294555
 11
638.32503334162607
 21
288.49151556294555
  0
TEXT
  8
_0-e_文字
 62
    7
 10
728.39234237558219
 20
283.89967845173595
 40
9
 41
1
 50
0
  1
バックアップ材
  0
TEXT
  8
_0-e_文字
 62
    4
 10
753.63193676931019
 20
275.84448875160996
 40
7.4999999999998295
 41
1.0000000000000138
 50
0
  1
(建築工事)
  0
LINE
  8
_0-0_本体
  6
CONTINUOUS
 62
   18
 10
575.93543697852488
 20
343.34360430203105
 11
573.79102474704496
 21
301.34360430203105
  0
LINE
  8
_0-0_本体
  6
CONTINUOUS
 62
   18
 10
573.79102474704496
 20
301.34360430203105
 11
554.79909182208371
 21
301.34360430203105
  0
LINE
  8
_0-7_ハッチ
  6
CONTINUOUS
 62
   18
 10
367.60509182208364
 20
240.34360430203105
 11
367.60509182208364
 21
238.34360430203105
  0
LINE
  8
_0-7_ハッチ
  6
CONTINUOUS
 62
   18
 10
367.60510007007781
 20
261.62972597673149
 11
357.60509182208375
 21
251.62971772873743
  0
LINE
  8
_0-7_ハッチ
  6
CONTINUOUS
 62
   18
 10
367.60510007007781
 20
259.50840563317189
 11
357.60509182208375
 21
249.50839738517766
  0
LINE
  8
_0-7_ハッチ
  6
CONTINUOUS
 62
   18
 10
367.60510007007781
 20
257.38708528961223
 11
357.60509182208375
 21
247.38707704161806
  0
LINE
  8
_0-7_ハッチ
  6
CONTINUOUS
 62
   18
 10
367.60510007007781
 20
255.26576494605263
 11
357.60509182208375
 21
245.26575669805857
  0
LINE
  8
_0-7_ハッチ
  6
CONTINUOUS
 62
   18
 10
367.60510007007781
 20
253.14444460249297
 11
357.60509182208375
 21
243.14443635449913
  0
LINE
  8
_0-7_ハッチ
  6
CONTINUOUS
 62
   18
 10
357.60509182208375
 20
261.62972597673149
 11
367.60509182208364
 21
251.62972597673144
  0
LINE
  8
_0-7_ハッチ
  6
CONTINUOUS
 62
   18
 10
357.60509182208375
 20
259.50840563317189
 11
367.60509182208364
 21
249.50840563317178
  0
LINE
  8
_0-7_ハッチ
  6
CONTINUOUS
 62
   18
 10
357.60509182208375
 20
257.38708528961223
 11
367.60509182208364
 21
247.38708528961209
  0
LINE
  8
_0-7_ハッチ
  6
CONTINUOUS
 62
   18
 10
357.60509182208375
 20
255.26576494605263
 11
367.60509182208364
 21
245.26576494605268
  0
LINE
  8
_0-7_ハッチ
  6
CONTINUOUS
 62
   18
 10
357.60509182208375
 20
253.14444460249308
 11
367.60509182208364
 21
243.14444460249314
  0
LINE
  8
_0-7_ハッチ
  6
CONTINUOUS
 62
   18
 10
367.60510007007781
 20
251.02312425893342
 11
357.60509182208375
 21
241.02311601093959
  0
LINE
  8
_0-7_ハッチ
  6
CONTINUOUS
 62
   18
 10
357.60509182208375
 20
251.02312425893356
 11
367.60509182208364
 21
241.02312425893362
  0
LINE
  8
_0-7_ハッチ
  6
CONTINUOUS
 62
   18
 10
367.60510007007781
 20
248.9018039153739
 11
357.60509182208375
 21
238.90179566738004
  0
LINE
  8
_0-7_ハッチ
  6
CONTINUOUS
 62
   18
 10
357.60509182208375
 20
248.90180391537405
 11
367.60509182208364
 21
238.9018039153741
  0
LINE
  8
_0-7_ハッチ
  6
CONTINUOUS
 62
   18
 10
357.60509182208375
 20
240.41652254113592
 11
359.67801006118862
 21
238.34360430203105
  0
LINE
  8
_0-7_ハッチ
  6
CONTINUOUS
 62
   18
 10
367.60510007007781
 20
240.41652254113578
 11
365.532181830973
 21
238.34360430203105
  0
LINE
  8
_0-7_ハッチ
  6
CONTINUOUS
 62
   18
 10
367.60510007007781
 20
246.78048357181439
 11
359.16822080029431
 21
238.34360430203105
  0
LINE
  8
_0-7_ハッチ
  6
CONTINUOUS
 62
   18
 10
357.60509182208375
 20
246.7804835718145
 11
366.0419710918672
 21
238.34360430203105
  0
LINE
  8
_0-7_ハッチ
  6
CONTINUOUS
 62
   18
 10
367.60510007007781
 20
244.65916322825484
 11
361.28954114385385
 21
238.34360430203105
  0
LINE
  8
_0-7_ハッチ
  6
CONTINUOUS
 62
   18
 10
357.60509182208375
 20
244.65916322825495
 11
363.92065074830765
 21
238.34360430203105
  0
LINE
  8
_0-7_ハッチ
  6
CONTINUOUS
 62
   18
 10
367.60510007007781
 20
242.53784288469529
 11
363.4108614874134
 21
238.34360430203105
  0
LINE
  8
_0-7_ハッチ
  6
CONTINUOUS
 62
   18
 10
357.60509182208375
 20
242.53784288469544
 11
361.7993304047481
 21
238.34360430203105
  0
LINE
  8
_0-7_ハッチ
  6
CONTINUOUS
 62
   18
 10
607.79909182208371
 20
240.34360430203105
 11
607.79909182208371
 21
238.34360430203105
  0
LINE
  8
_0-7_ハッチ
  6
CONTINUOUS
 62
   18
 10
617.79909182208371
 20
259.50840563317189
 11
607.79909182208371
 21
249.50840563317178
  0
LINE
  8
_0-7_ハッチ
  6
CONTINUOUS
 62
   18
 10
617.79909182208371
 20
257.38708528961223
 11
607.79909182208371
 21
247.38708528961209
  0
LINE
  8
_0-7_ハッチ
  6
CONTINUOUS
 62
   18
 10
617.79909182208371
 20
255.26576494605263
 11
607.79909182208371
 21
245.26576494605268
  0
LINE
  8
_0-7_ハッチ
  6
CONTINUOUS
 62
   18
 10
617.79909182208371
 20
253.14444460249308
 11
607.79909182208371
 21
243.14444460249243
  0
LINE
  8
_0-7_ハッチ
  6
CONTINUOUS
 62
   18
 10
607.79908357408954
 20
259.50840563317189
 11
617.79909182208371
 21
249.50839738517772
  0
LINE
  8
_0-7_ハッチ
  6
CONTINUOUS
 62
   18
 10
607.79908357408954
 20
257.38708528961223
 11
617.79909182208371
 21
247.38707704161831
  0
LINE
  8
_0-7_ハッチ
  6
CONTINUOUS
 62
   18
 10
607.79908357408954
 20
255.26576494605263
 11
617.79909182208371
 21
245.26575669805868
  0
LINE
  8
_0-7_ハッチ
  6
CONTINUOUS
 62
   18
 10
607.79908357408954
 20
253.14444460249297
 11
617.79909182208371
 21
243.14443635450021
  0
LINE
  8
_0-7_ハッチ
  6
CONTINUOUS
 62
   18
 10
607.79908357408999
 20
251.02312425893348
 11
617.79909182208405
 21
241.02311601094073
  0
LINE
  8
_0-7_ハッチ
  6
CONTINUOUS
 62
   18
 10
617.79909182208405
 20
251.02312425893359
 11
607.79909182208416
 21
241.02312425893294
  0
LINE
  8
_0-7_ハッチ
  6
CONTINUOUS
 62
   18
 10
607.79908357409033
 20
248.90180391537399
 11
617.79909182208451
 21
238.90179566738124
  0
LINE
  8
_0-7_ハッチ
  6
CONTINUOUS
 62
   18
 10
617.79909182208451
 20
248.9018039153741
 11
607.79909182208462
 21
238.90180391537345
  0
LINE
  8
_0-7_ハッチ
  6
CONTINUOUS
 62
   18
 10
607.79908357409204
 20
240.41652254113603
 11
609.87200181319724
 21
238.34360430203105
  0
LINE
  8
_0-7_ハッチ
  6
CONTINUOUS
 62
   18
 10
617.7990918220861
 20
240.41652254113615
 11
615.72617358298112
 21
238.34360430203105
  0
LINE
  8
_0-7_ハッチ
  6
CONTINUOUS
 62
   18
 10
607.79908357409079
 20
246.7804835718145
 11
616.23596284387543
 21
238.34360430203105
  0
LINE
  8
_0-7_ハッチ
  6
CONTINUOUS
 62
   18
 10
617.79909182208496
 20
246.78048357181461
 11
609.36221255230191
 21
238.34360430203105
  0
LINE
  8
_0-7_ハッチ
  6
CONTINUOUS
 62
   18
 10
607.79908357409113
 20
244.65916322825501
 11
614.11464250031599
 21
238.34360430203105
  0
LINE
  8
_0-7_ハッチ
  6
CONTINUOUS
 62
   18
 10
617.7990918220853
 20
244.65916322825512
 11
611.48353289586169
 21
238.34360430203105
  0
LINE
  8
_0-7_ハッチ
  6
CONTINUOUS
 62
   18
 10
607.79908357409158
 20
242.53784288469552
 11
611.99332215675668
 21
238.34360430203105
  0
LINE
  8
_0-7_ハッチ
  6
CONTINUOUS
 62
   18
 10
617.79909182208576
 20
242.53784288469564
 11
613.60485323942146
 21
238.34360430203105
  0
LINE
  8
_0-0_本体
  6
CONTINUOUS
 62
    7
 10
622.69999182208346
 20
283.53220431091574
 11
623.59169182208359
 21
279.47100431091582
  0
LINE
  8
_0-0_本体
  6
CONTINUOUS
 62
    7
 10
623.59169182208359
 20
279.47100431091582
 11
624.4833918220836
 21
278.69260431091573
  0
LINE
  8
_0-0_本体
  6
CONTINUOUS
 62
    7
 10
624.4833918220836
 20
278.69260431091573
 11
623.59169182208359
 21
284.31060431091583
  0
LINE
  8
_0-0_本体
  6
CONTINUOUS
 62
    7
 10
623.59169182208359
 20
284.31060431091583
 11
622.69999182208346
 21
283.53220431091574
  0
LINE
  8
_0-0_本体
  6
CONTINUOUS
 62
    7
 10
621.8081918220837
 20
284.31060431091583
 11
622.69999182208346
 21
278.69260431091573
  0
LINE
  8
_0-0_本体
  6
CONTINUOUS
 62
    7
 10
622.69999182208346
 20
278.69260431091573
 11
623.59169182208359
 21
279.47100431091582
  0
LINE
  8
_0-0_本体
  6
CONTINUOUS
 62
    7
 10
623.59169182208359
 20
279.47100431091582
 11
622.69999182208346
 21
283.53220431091574
  0
LINE
  8
_0-0_本体
  6
CONTINUOUS
 62
    7
 10
622.69999182208346
 20
283.53220431091574
 11
621.8081918220837
 21
284.31060431091583
  0
LINE
  8
_0-0_本体
  6
CONTINUOUS
 62
    7
 10
620.91649182208357
 20
283.53220431091574
 11
621.8081918220837
 21
279.47100431091582
  0
LINE
  8
_0-0_本体
  6
CONTINUOUS
 62
    7
 10
621.8081918220837
 20
279.47100431091582
 11
622.69999182208346
 21
278.69260431091573
  0
LINE
  8
_0-0_本体
  6
CONTINUOUS
 62
    7
 10
622.69999182208346
 20
278.69260431091573
 11
621.8081918220837
 21
284.31060431091583
  0
LINE
  8
_0-0_本体
  6
CONTINUOUS
 62
    7
 10
621.8081918220837
 20
284.31060431091583
 11
620.91649182208357
 21
283.53220431091574
  0
LINE
  8
_0-0_本体
  6
CONTINUOUS
 62
    7
 10
620.02479182208356
 20
284.31060431091583
 11
620.91649182208357
 21
278.69260431091573
  0
LINE
  8
_0-0_本体
  6
CONTINUOUS
 62
    7
 10
620.91649182208357
 20
278.69260431091573
 11
621.8081918220837
 21
279.47100431091582
  0
LINE
  8
_0-0_本体
  6
CONTINUOUS
 62
    7
 10
621.8081918220837
 20
279.47100431091582
 11
620.91649182208357
 21
283.53220431091574
  0
LINE
  8
_0-0_本体
  6
CONTINUOUS
 62
    7
 10
620.91649182208357
 20
283.53220431091574
 11
620.02479182208356
 21
284.31060431091583
  0
LINE
  8
_0-0_本体
  6
CONTINUOUS
 62
    7
 10
619.13299182208357
 20
283.53220431091574
 11
620.02479182208356
 21
279.47100431091582
  0
LINE
  8
_0-0_本体
  6
CONTINUOUS
 62
    7
 10
620.02479182208356
 20
279.47100431091582
 11
620.91649182208357
 21
278.69260431091573
  0
LINE
  8
_0-0_本体
  6
CONTINUOUS
 62
    7
 10
620.91649182208357
 20
278.69260431091573
 11
620.02479182208356
 21
284.31060431091583
  0
LINE
  8
_0-0_本体
  6
CONTINUOUS
 62
    7
 10
620.02479182208356
 20
284.31060431091583
 11
619.13299182208357
 21
283.53220431091574
  0
LINE
  8
_0-0_本体
  6
CONTINUOUS
 62
    7
 10
618.24129182208355
 20
284.31060431091583
 11
619.13299182208357
 21
278.69260431091573
  0
LINE
  8
_0-0_本体
  6
CONTINUOUS
 62
    7
 10
619.13299182208357
 20
278.69260431091573
 11
620.02479182208356
 21
279.47100431091582
  0
LINE
  8
_0-0_本体
  6
CONTINUOUS
 62
    7
 10
620.02479182208356
 20
279.47100431091582
 11
619.13299182208357
 21
283.53220431091574
  0
LINE
  8
_0-0_本体
  6
CONTINUOUS
 62
    7
 10
619.13299182208357
 20
283.53220431091574
 11
618.24129182208355
 21
284.31060431091583
  0
LINE
  8
_0-0_本体
  6
CONTINUOUS
 62
    7
 10
617.34969182208351
 20
283.53220431091574
 11
618.24129182208355
 21
279.47100431091582
  0
LINE
  8
_0-0_本体
  6
CONTINUOUS
 62
    7
 10
618.24129182208355
 20
279.47100431091582
 11
619.13299182208357
 21
278.69260431091573
  0
LINE
  8
_0-0_本体
  6
CONTINUOUS
 62
    7
 10
619.13299182208357
 20
278.69260431091573
 11
618.24129182208355
 21
284.31060431091583
  0
LINE
  8
_0-0_本体
  6
CONTINUOUS
 62
    7
 10
618.24129182208355
 20
284.31060431091583
 11
617.34969182208351
 21
283.53220431091574
  0
LINE
  8
_0-0_本体
  6
CONTINUOUS
 62
    7
 10
616.45789182208364
 20
284.31060431091583
 11
617.34969182208351
 21
278.69260431091573
  0
LINE
  8
_0-0_本体
  6
CONTINUOUS
 62
    7
 10
617.34969182208351
 20
278.69260431091573
 11
618.24129182208355
 21
279.47100431091582
  0
LINE
  8
_0-0_本体
  6
CONTINUOUS
 62
    7
 10
618.24129182208355
 20
279.47100431091582
 11
617.34969182208351
 21
283.53220431091574
  0
LINE
  8
_0-0_本体
  6
CONTINUOUS
 62
    7
 10
617.34969182208351
 20
283.53220431091574
 11
616.45789182208364
 21
284.31060431091583
  0
LINE
  8
_0-0_本体
  6
CONTINUOUS
 62
    7
 10
615.56619182208362
 20
283.53220431091574
 11
616.45789182208364
 21
279.47100431091582
  0
LINE
  8
_0-0_本体
  6
CONTINUOUS
 62
    7
 10
616.45789182208364
 20
279.47100431091582
 11
617.34969182208351
 21
278.69260431091573
  0
LINE
  8
_0-0_本体
  6
CONTINUOUS
 62
    7
 10
617.34969182208351
 20
278.69260431091573
 11
616.45789182208364
 21
284.31060431091583
  0
LINE
  8
_0-0_本体
  6
CONTINUOUS
 62
    7
 10
616.45789182208364
 20
284.31060431091583
 11
615.56619182208362
 21
283.53220431091574
  0
LINE
  8
_0-0_本体
  6
CONTINUOUS
 62
    7
 10
614.67449182208361
 20
284.31060431091583
 11
615.56619182208362
 21
278.69260431091573
  0
LINE
  8
_0-0_本体
  6
CONTINUOUS
 62
    7
 10
615.56619182208362
 20
278.69260431091573
 11
616.45789182208364
 21
279.47100431091582
  0
LINE
  8
_0-0_本体
  6
CONTINUOUS
 62
    7
 10
616.45789182208364
 20
279.47100431091582
 11
615.56619182208362
 21
283.53220431091574
  0
LINE
  8
_0-0_本体
  6
CONTINUOUS
 62
    7
 10
615.56619182208362
 20
283.53220431091574
 11
614.67449182208361
 21
284.31060431091583
  0
LINE
  8
_0-0_本体
  6
CONTINUOUS
 62
    7
 10
613.78269182208351
 20
283.53220431091574
 11
614.67449182208361
 21
279.47100431091582
  0
LINE
  8
_0-0_本体
  6
CONTINUOUS
 62
    7
 10
614.67449182208361
 20
279.47100431091582
 11
615.56619182208362
 21
278.69260431091573
  0
LINE
  8
_0-0_本体
  6
CONTINUOUS
 62
    7
 10
615.56619182208362
 20
278.69260431091573
 11
614.67449182208361
 21
284.31060431091583
  0
LINE
  8
_0-0_本体
  6
CONTINUOUS
 62
    7
 10
614.67449182208361
 20
284.31060431091583
 11
613.78269182208351
 21
283.53220431091574
  0
LINE
  8
_0-0_本体
  6
CONTINUOUS
 62
    7
 10
612.89099182208361
 20
284.31060431091583
 11
613.78269182208351
 21
278.69260431091573
  0
LINE
  8
_0-0_本体
  6
CONTINUOUS
 62
    7
 10
613.78269182208351
 20
278.69260431091573
 11
614.67449182208361
 21
279.47100431091582
  0
LINE
  8
_0-0_本体
  6
CONTINUOUS
 62
    7
 10
614.67449182208361
 20
279.47100431091582
 11
613.78269182208351
 21
283.53220431091574
  0
LINE
  8
_0-0_本体
  6
CONTINUOUS
 62
    7
 10
613.78269182208351
 20
283.53220431091574
 11
612.89099182208361
 21
284.31060431091583
  0
LINE
  8
_0-0_本体
  6
CONTINUOUS
 62
    7
 10
611.99929182208371
 20
283.53220431091574
 11
612.89099182208361
 21
279.47100431091582
  0
LINE
  8
_0-0_本体
  6
CONTINUOUS
 62
    7
 10
612.89099182208361
 20
279.47100431091582
 11
613.78269182208351
 21
278.69260431091573
  0
LINE
  8
_0-0_本体
  6
CONTINUOUS
 62
    7
 10
613.78269182208351
 20
278.69260431091573
 11
612.89099182208361
 21
284.31060431091583
  0
LINE
  8
_0-0_本体
  6
CONTINUOUS
 62
    7
 10
612.89099182208361
 20
284.31060431091583
 11
611.99929182208371
 21
283.53220431091574
  0
LINE
  8
_0-0_本体
  6
CONTINUOUS
 62
    7
 10
611.1074918220836
 20
284.31060431091583
 11
611.99929182208371
 21
278.69260431091573
  0
LINE
  8
_0-0_本体
  6
CONTINUOUS
 62
    7
 10
611.99929182208371
 20
278.69260431091573
 11
612.89099182208361
 21
279.47100431091582
  0
LINE
  8
_0-0_本体
  6
CONTINUOUS
 62
    7
 10
612.89099182208361
 20
279.47100431091582
 11
611.99929182208371
 21
283.53220431091574
  0
LINE
  8
_0-0_本体
  6
CONTINUOUS
 62
    7
 10
611.99929182208371
 20
283.53220431091574
 11
611.1074918220836
 21
284.31060431091583
  0
LINE
  8
_0-0_本体
  6
CONTINUOUS
 62
    7
 10
610.21579182208359
 20
283.53220431091574
 11
611.1074918220836
 21
279.47100431091582
  0
LINE
  8
_0-0_本体
  6
CONTINUOUS
 62
    7
 10
611.1074918220836
 20
279.47100431091582
 11
611.99929182208371
 21
278.69260431091573
  0
LINE
  8
_0-0_本体
  6
CONTINUOUS
 62
    7
 10
611.99929182208371
 20
278.69260431091573
 11
611.1074918220836
 21
284.31060431091583
  0
LINE
  8
_0-0_本体
  6
CONTINUOUS
 62
    7
 10
611.1074918220836
 20
284.31060431091583
 11
610.21579182208359
 21
283.53220431091574
  0
LINE
  8
_0-0_本体
  6
CONTINUOUS
 62
    7
 10
609.32419182208355
 20
284.31060431091583
 11
610.21579182208359
 21
278.69260431091573
  0
LINE
  8
_0-0_本体
  6
CONTINUOUS
 62
    7
 10
610.21579182208359
 20
278.69260431091573
 11
611.1074918220836
 21
279.47100431091582
  0
LINE
  8
_0-0_本体
  6
CONTINUOUS
 62
    7
 10
611.1074918220836
 20
279.47100431091582
 11
610.21579182208359
 21
283.53220431091574
  0
LINE
  8
_0-0_本体
  6
CONTINUOUS
 62
    7
 10
610.21579182208359
 20
283.53220431091574
 11
609.32419182208355
 21
284.31060431091583
  0
LINE
  8
_0-0_本体
  6
CONTINUOUS
 62
    7
 10
608.43239182208356
 20
283.53220431091574
 11
609.32419182208355
 21
279.47100431091582
  0
LINE
  8
_0-0_本体
  6
CONTINUOUS
 62
    7
 10
609.32419182208355
 20
279.47100431091582
 11
610.21579182208359
 21
278.69260431091573
  0
LINE
  8
_0-0_本体
  6
CONTINUOUS
 62
    7
 10
610.21579182208359
 20
278.69260431091573
 11
609.32419182208355
 21
284.31060431091583
  0
LINE
  8
_0-0_本体
  6
CONTINUOUS
 62
    7
 10
609.32419182208355
 20
284.31060431091583
 11
608.43239182208356
 21
283.53220431091574
  0
LINE
  8
_0-0_本体
  6
CONTINUOUS
 62
    7
 10
607.54069182208355
 20
284.31060431091583
 11
608.43239182208356
 21
278.69260431091573
  0
LINE
  8
_0-0_本体
  6
CONTINUOUS
 62
    7
 10
608.43239182208356
 20
278.69260431091573
 11
609.32419182208355
 21
279.47100431091582
  0
LINE
  8
_0-0_本体
  6
CONTINUOUS
 62
    7
 10
609.32419182208355
 20
279.47100431091582
 11
608.43239182208356
 21
283.53220431091574
  0
LINE
  8
_0-0_本体
  6
CONTINUOUS
 62
    7
 10
608.43239182208356
 20
283.53220431091574
 11
607.54069182208355
 21
284.31060431091583
  0
LINE
  8
_0-0_本体
  6
CONTINUOUS
 62
    7
 10
606.64899182208342
 20
283.53220431091574
 11
607.54069182208355
 21
279.47100431091582
  0
LINE
  8
_0-0_本体
  6
CONTINUOUS
 62
    7
 10
607.54069182208355
 20
279.47100431091582
 11
608.43239182208356
 21
278.69260431091573
  0
LINE
  8
_0-0_本体
  6
CONTINUOUS
 62
    7
 10
608.43239182208356
 20
278.69260431091573
 11
607.54069182208355
 21
284.31060431091583
  0
LINE
  8
_0-0_本体
  6
CONTINUOUS
 62
    7
 10
607.54069182208355
 20
284.31060431091583
 11
606.64899182208342
 21
283.53220431091574
  0
LINE
  8
_0-0_本体
  6
CONTINUOUS
 62
    7
 10
605.75719182208366
 20
284.31060431091583
 11
606.64899182208342
 21
278.69260431091573
  0
LINE
  8
_0-0_本体
  6
CONTINUOUS
 62
    7
 10
606.64899182208342
 20
278.69260431091573
 11
607.54069182208355
 21
279.47100431091582
  0
LINE
  8
_0-0_本体
  6
CONTINUOUS
 62
    7
 10
607.54069182208355
 20
279.47100431091582
 11
606.64899182208342
 21
283.53220431091574
  0
LINE
  8
_0-0_本体
  6
CONTINUOUS
 62
    7
 10
606.64899182208342
 20
283.53220431091574
 11
605.75719182208366
 21
284.31060431091583
  0
LINE
  8
_0-0_本体
  6
CONTINUOUS
 62
    7
 10
604.86549182208364
 20
283.53220431091574
 11
605.75719182208366
 21
279.47100431091582
  0
LINE
  8
_0-0_本体
  6
CONTINUOUS
 62
    7
 10
605.75719182208366
 20
279.47100431091582
 11
606.64899182208342
 21
278.69260431091573
  0
LINE
  8
_0-0_本体
  6
CONTINUOUS
 62
    7
 10
606.64899182208342
 20
278.69260431091573
 11
605.75719182208366
 21
284.31060431091583
  0
LINE
  8
_0-0_本体
  6
CONTINUOUS
 62
    7
 10
605.75719182208366
 20
284.31060431091583
 11
604.86549182208364
 21
283.53220431091574
  0
LINE
  8
_0-0_本体
  6
CONTINUOUS
 62
    7
 10
603.97379182208351
 20
284.31060431091583
 11
604.86549182208364
 21
278.69260431091573
  0
LINE
  8
_0-0_本体
  6
CONTINUOUS
 62
    7
 10
604.86549182208364
 20
278.69260431091573
 11
605.75719182208366
 21
279.47100431091582
  0
LINE
  8
_0-0_本体
  6
CONTINUOUS
 62
    7
 10
605.75719182208366
 20
279.47100431091582
 11
604.86549182208364
 21
283.53220431091574
  0
LINE
  8
_0-0_本体
  6
CONTINUOUS
 62
    7
 10
604.86549182208364
 20
283.53220431091574
 11
603.97379182208351
 21
284.31060431091583
  0
LINE
  8
_0-0_本体
  6
CONTINUOUS
 62
    7
 10
603.08199182208364
 20
283.53220431091574
 11
603.97379182208351
 21
279.47100431091582
  0
LINE
  8
_0-0_本体
  6
CONTINUOUS
 62
    7
 10
603.97379182208351
 20
279.47100431091582
 11
604.86549182208364
 21
278.69260431091573
  0
LINE
  8
_0-0_本体
  6
CONTINUOUS
 62
    7
 10
604.86549182208364
 20
278.69260431091573
 11
603.97379182208351
 21
284.31060431091583
  0
LINE
  8
_0-0_本体
  6
CONTINUOUS
 62
    7
 10
603.97379182208351
 20
284.31060431091583
 11
603.08199182208364
 21
283.53220431091574
  0
LINE
  8
_0-0_本体
  6
CONTINUOUS
 62
    7
 10
602.19039182208371
 20
284.31060431091583
 11
603.08199182208364
 21
278.69260431091573
  0
LINE
  8
_0-0_本体
  6
CONTINUOUS
 62
    7
 10
603.08199182208364
 20
278.69260431091573
 11
603.97379182208351
 21
279.47100431091582
  0
LINE
  8
_0-0_本体
  6
CONTINUOUS
 62
    7
 10
603.97379182208351
 20
279.47100431091582
 11
603.08199182208364
 21
283.53220431091574
  0
LINE
  8
_0-0_本体
  6
CONTINUOUS
 62
    7
 10
603.08199182208364
 20
283.53220431091574
 11
602.19039182208371
 21
284.31060431091583
  0
LINE
  8
_0-0_本体
  6
CONTINUOUS
 62
    7
 10
601.29859182208361
 20
283.53220431091574
 11
602.19039182208371
 21
279.47100431091582
  0
LINE
  8
_0-0_本体
  6
CONTINUOUS
 62
    7
 10
602.19039182208371
 20
279.47100431091582
 11
603.08199182208364
 21
278.69260431091573
  0
LINE
  8
_0-0_本体
  6
CONTINUOUS
 62
    7
 10
603.08199182208364
 20
278.69260431091573
 11
602.19039182208371
 21
284.31060431091583
  0
LINE
  8
_0-0_本体
  6
CONTINUOUS
 62
    7
 10
602.19039182208371
 20
284.31060431091583
 11
601.29859182208361
 21
283.53220431091574
  0
LINE
  8
_0-0_本体
  6
CONTINUOUS
 62
    7
 10
600.40689182208359
 20
284.31060431091583
 11
601.29859182208361
 21
278.69260431091573
  0
LINE
  8
_0-0_本体
  6
CONTINUOUS
 62
    7
 10
601.29859182208361
 20
278.69260431091573
 11
602.19039182208371
 21
279.47100431091582
  0
LINE
  8
_0-0_本体
  6
CONTINUOUS
 62
    7
 10
602.19039182208371
 20
279.47100431091582
 11
601.29859182208361
 21
283.53220431091574
  0
LINE
  8
_0-0_本体
  6
CONTINUOUS
 62
    7
 10
601.29859182208361
 20
283.53220431091574
 11
600.40689182208359
 21
284.31060431091583
  0
LINE
  8
_0-0_本体
  6
CONTINUOUS
 62
    7
 10
599.51519182208358
 20
283.53220431091574
 11
600.40689182208359
 21
279.47100431091582
  0
LINE
  8
_0-0_本体
  6
CONTINUOUS
 62
    7
 10
600.40689182208359
 20
279.47100431091582
 11
601.29859182208361
 21
278.69260431091573
  0
LINE
  8
_0-0_本体
  6
CONTINUOUS
 62
    7
 10
601.29859182208361
 20
278.69260431091573
 11
600.40689182208359
 21
284.31060431091583
  0
LINE
  8
_0-0_本体
  6
CONTINUOUS
 62
    7
 10
600.40689182208359
 20
284.31060431091583
 11
599.51519182208358
 21
283.53220431091574
  0
LINE
  8
_0-0_本体
  6
CONTINUOUS
 62
    7
 10
598.62339182208359
 20
284.31060431091583
 11
599.51519182208358
 21
278.69260431091573
  0
LINE
  8
_0-0_本体
  6
CONTINUOUS
 62
    7
 10
599.51519182208358
 20
278.69260431091573
 11
600.40689182208359
 21
279.47100431091582
  0
LINE
  8
_0-0_本体
  6
CONTINUOUS
 62
    7
 10
600.40689182208359
 20
279.47100431091582
 11
599.51519182208358
 21
283.53220431091574
  0
LINE
  8
_0-0_本体
  6
CONTINUOUS
 62
    7
 10
599.51519182208358
 20
283.53220431091574
 11
598.62339182208359
 21
284.31060431091583
  0
LINE
  8
_0-0_本体
  6
CONTINUOUS
 62
    7
 10
597.73169182208358
 20
283.53220431091574
 11
598.62339182208359
 21
279.47100431091582
  0
LINE
  8
_0-0_本体
  6
CONTINUOUS
 62
    7
 10
598.62339182208359
 20
279.47100431091582
 11
599.51519182208358
 21
278.69260431091573
  0
LINE
  8
_0-0_本体
  6
CONTINUOUS
 62
    7
 10
599.51519182208358
 20
278.69260431091573
 11
598.62339182208359
 21
284.31060431091583
  0
LINE
  8
_0-0_本体
  6
CONTINUOUS
 62
    7
 10
598.62339182208359
 20
284.31060431091583
 11
597.73169182208358
 21
283.53220431091574
  0
LINE
  8
_0-0_本体
  6
CONTINUOUS
 62
    7
 10
596.83999182208345
 20
284.31060431091583
 11
597.73169182208358
 21
278.69260431091573
  0
LINE
  8
_0-0_本体
  6
CONTINUOUS
 62
    7
 10
597.73169182208358
 20
278.69260431091573
 11
598.62339182208359
 21
279.47100431091582
  0
LINE
  8
_0-0_本体
  6
CONTINUOUS
 62
    7
 10
598.62339182208359
 20
279.47100431091582
 11
597.73169182208358
 21
283.53220431091574
  0
LINE
  8
_0-0_本体
  6
CONTINUOUS
 62
    7
 10
597.73169182208358
 20
283.53220431091574
 11
596.83999182208345
 21
284.31060431091583
  0
LINE
  8
_0-0_本体
  6
CONTINUOUS
 62
    7
 10
595.94819182208357
 20
283.53220431091574
 11
596.83999182208345
 21
279.47100431091582
  0
LINE
  8
_0-0_本体
  6
CONTINUOUS
 62
    7
 10
596.83999182208345
 20
279.47100431091582
 11
597.73169182208358
 21
278.69260431091573
  0
LINE
  8
_0-0_本体
  6
CONTINUOUS
 62
    7
 10
597.73169182208358
 20
278.69260431091573
 11
596.83999182208345
 21
284.31060431091583
  0
LINE
  8
_0-0_本体
  6
CONTINUOUS
 62
    7
 10
596.83999182208345
 20
284.31060431091583
 11
595.94819182208357
 21
283.53220431091574
  0
LINE
  8
_0-0_本体
  6
CONTINUOUS
 62
    7
 10
595.05659182208365
 20
284.31060431091583
 11
595.94819182208357
 21
278.69260431091573
  0
LINE
  8
_0-0_本体
  6
CONTINUOUS
 62
    7
 10
595.94819182208357
 20
278.69260431091573
 11
596.83999182208345
 21
279.47100431091582
  0
LINE
  8
_0-0_本体
  6
CONTINUOUS
 62
    7
 10
596.83999182208345
 20
279.47100431091582
 11
595.94819182208357
 21
283.53220431091574
  0
LINE
  8
_0-0_本体
  6
CONTINUOUS
 62
    7
 10
595.94819182208357
 20
283.53220431091574
 11
595.05659182208365
 21
284.31060431091583
  0
LINE
  8
_0-0_本体
  6
CONTINUOUS
 62
    7
 10
594.16489182208363
 20
283.53220431091574
 11
595.05659182208365
 21
279.47100431091582
  0
LINE
  8
_0-0_本体
  6
CONTINUOUS
 62
    7
 10
595.05659182208365
 20
279.47100431091582
 11
595.94819182208357
 21
278.69260431091573
  0
LINE
  8
_0-0_本体
  6
CONTINUOUS
 62
    7
 10
595.94819182208357
 20
278.69260431091573
 11
595.05659182208365
 21
284.31060431091583
  0
LINE
  8
_0-0_本体
  6
CONTINUOUS
 62
    7
 10
595.05659182208365
 20
284.31060431091583
 11
594.16489182208363
 21
283.53220431091574
  0
LINE
  8
_0-0_本体
  6
CONTINUOUS
 62
    7
 10
593.27309182208364
 20
284.31060431091583
 11
594.16489182208363
 21
278.69260431091573
  0
LINE
  8
_0-0_本体
  6
CONTINUOUS
 62
    7
 10
594.16489182208363
 20
278.69260431091573
 11
595.05659182208365
 21
279.47100431091582
  0
LINE
  8
_0-0_本体
  6
CONTINUOUS
 62
    7
 10
595.05659182208365
 20
279.47100431091582
 11
594.16489182208363
 21
283.53220431091574
  0
LINE
  8
_0-0_本体
  6
CONTINUOUS
 62
    7
 10
594.16489182208363
 20
283.53220431091574
 11
593.27309182208364
 21
284.31060431091583
  0
LINE
  8
_0-0_本体
  6
CONTINUOUS
 62
    7
 10
592.38139182208351
 20
283.53220431091574
 11
593.27309182208364
 21
279.47100431091582
  0
LINE
  8
_0-0_本体
  6
CONTINUOUS
 62
    7
 10
593.27309182208364
 20
279.47100431091582
 11
594.16489182208363
 21
278.69260431091573
  0
LINE
  8
_0-0_本体
  6
CONTINUOUS
 62
    7
 10
594.16489182208363
 20
278.69260431091573
 11
593.27309182208364
 21
284.31060431091583
  0
LINE
  8
_0-0_本体
  6
CONTINUOUS
 62
    7
 10
593.27309182208364
 20
284.31060431091583
 11
592.38139182208351
 21
283.53220431091574
  0
LINE
  8
_0-0_本体
  6
CONTINUOUS
 62
    7
 10
591.48969182208361
 20
284.31060431091583
 11
592.38139182208351
 21
278.69260431091573
  0
LINE
  8
_0-0_本体
  6
CONTINUOUS
 62
    7
 10
592.38139182208351
 20
278.69260431091573
 11
593.27309182208364
 21
279.47100431091582
  0
LINE
  8
_0-0_本体
  6
CONTINUOUS
 62
    7
 10
593.27309182208364
 20
279.47100431091582
 11
592.38139182208351
 21
283.53220431091574
  0
LINE
  8
_0-0_本体
  6
CONTINUOUS
 62
    7
 10
592.38139182208351
 20
283.53220431091574
 11
591.48969182208361
 21
284.31060431091583
  0
LINE
  8
_0-0_本体
  6
CONTINUOUS
 62
    7
 10
590.59789182208351
 20
283.53220431091574
 11
591.48969182208361
 21
279.47100431091582
  0
LINE
  8
_0-0_本体
  6
CONTINUOUS
 62
    7
 10
591.48969182208361
 20
279.47100431091582
 11
592.38139182208351
 21
278.69260431091573
  0
LINE
  8
_0-0_本体
  6
CONTINUOUS
 62
    7
 10
592.38139182208351
 20
278.69260431091573
 11
591.48969182208361
 21
284.31060431091583
  0
LINE
  8
_0-0_本体
  6
CONTINUOUS
 62
    7
 10
591.48969182208361
 20
284.31060431091583
 11
590.59789182208351
 21
283.53220431091574
  0
LINE
  8
_0-0_本体
  6
CONTINUOUS
 62
    7
 10
589.70619182208372
 20
284.31060431091583
 11
590.59789182208351
 21
278.69260431091573
  0
LINE
  8
_0-0_本体
  6
CONTINUOUS
 62
    7
 10
590.59789182208351
 20
278.69260431091573
 11
591.48969182208361
 21
279.47100431091582
  0
LINE
  8
_0-0_本体
  6
CONTINUOUS
 62
    7
 10
591.48969182208361
 20
279.47100431091582
 11
590.59789182208351
 21
283.53220431091574
  0
LINE
  8
_0-0_本体
  6
CONTINUOUS
 62
    7
 10
590.59789182208351
 20
283.53220431091574
 11
589.70619182208372
 21
284.31060431091583
  0
LINE
  8
_0-0_本体
  6
CONTINUOUS
 62
    7
 10
589.70619182208372
 20
284.31060431091583
 11
587.20109182208364
 21
284.31060431091583
  0
ARC
  8
_0-0_本体
  6
CONTINUOUS
 62
    7
 10
587.20109182208364
 20
284.48060431091585
 40
0.1700000000000514
 50
180.00000000001197
 51
269.99999999998801
  0
LINE
  8
_0-0_本体
  6
CONTINUOUS
 62
    7
 10
587.03109182208368
 20
278.5016043109157
 11
587.03109182208368
 21
284.5016043109157
  0
ARC
  8
_0-0_本体
  6
CONTINUOUS
 62
    7
 10
587.20109182208353
 20
278.52260431091577
 40
0.1699999999999768
 50
89.999999999986812
 51
180.000000000006
  0
LINE
  8
_0-0_本体
  6
CONTINUOUS
 62
    7
 10
587.20109182208364
 20
278.69260431091573
 11
588.81449182208371
 21
278.69260431091573
  0
LINE
  8
_0-0_本体
  6
CONTINUOUS
 62
    7
 10
588.81449182208371
 20
278.69260431091573
 11
589.70619182208372
 21
279.47100431091582
  0
LINE
  8
_0-0_本体
  6
CONTINUOUS
 62
    7
 10
589.70619182208372
 20
279.47100431091582
 11
590.59789182208351
 21
278.69260431091573
  0
LINE
  8
_0-0_本体
  6
CONTINUOUS
 62
    7
 10
590.59789182208351
 20
278.69260431091573
 11
589.70619182208372
 21
284.31060431091583
  0
LINE
  8
_0-0_本体
  6
CONTINUOUS
 62
    7
 10
587.03109182208368
 20
278.69260431091573
 11
582.79909182208371
 21
273.63040431091582
  0
LINE
  8
_0-0_本体
  6
CONTINUOUS
 62
    7
 10
587.03109182208368
 20
284.31060431091583
 11
582.79909182208371
 21
289.37280431091574
  0
LINE
  8
_0-0_本体
  6
CONTINUOUS
 62
    7
 10
582.79909182208371
 20
289.37280431091574
 11
582.79909182208371
 21
273.63040431091582
  0
LINE
  8
_0-0_本体
  6
CONTINUOUS
 62
    7
 10
624.48349182208358
 20
283.53220431091574
 11
623.59169182208359
 21
284.31060431091583
  0
LINE
  8
_0-0_本体
  6
CONTINUOUS
 62
    7
 10
625.37519182208359
 20
279.47100431091582
 11
624.48349182208358
 21
283.53220431091574
  0
LINE
  8
_0-0_本体
  6
CONTINUOUS
 62
    7
 10
624.48349182208358
 20
278.69260431091573
 11
625.37519182208359
 21
279.47100431091582
  0
LINE
  8
_0-0_本体
  6
CONTINUOUS
 62
    7
 10
623.59169182208359
 20
284.31060431091583
 11
624.48349182208358
 21
278.69260431091573
  0
LINE
  8
_0-0_本体
  6
CONTINUOUS
 62
    7
 10
625.37519182208359
 20
284.31060431091583
 11
624.48349182208358
 21
283.53220431091574
  0
LINE
  8
_0-0_本体
  6
CONTINUOUS
 62
    7
 10
626.26689182208361
 20
278.69260431091573
 11
625.37519182208359
 21
284.31060431091583
  0
LINE
  8
_0-0_本体
  6
CONTINUOUS
 62
    7
 10
625.37519182208359
 20
279.47100431091582
 11
626.26689182208361
 21
278.69260431091573
  0
LINE
  8
_0-0_本体
  6
CONTINUOUS
 62
    7
 10
624.48349182208358
 20
283.53220431091574
 11
625.37519182208359
 21
279.47100431091582
  0
LINE
  8
_0-0_本体
  6
CONTINUOUS
 62
    7
 10
626.26699182208347
 20
283.53220431091574
 11
625.37519182208359
 21
284.31060431091583
  0
LINE
  8
_0-0_本体
  6
CONTINUOUS
 62
    7
 10
627.15869182208371
 20
279.47100431091582
 11
626.26699182208347
 21
283.53220431091574
  0
LINE
  8
_0-0_本体
  6
CONTINUOUS
 62
    7
 10
626.26699182208347
 20
278.69260431091573
 11
627.15869182208371
 21
279.47100431091582
  0
LINE
  8
_0-0_本体
  6
CONTINUOUS
 62
    7
 10
625.37519182208359
 20
284.31060431091583
 11
626.26699182208347
 21
278.69260431091573
  0
LINE
  8
_0-0_本体
  6
CONTINUOUS
 62
    7
 10
627.15869182208371
 20
284.31060431091583
 11
626.26699182208347
 21
283.53220431091574
  0
LINE
  8
_0-0_本体
  6
CONTINUOUS
 62
    7
 10
628.05039182208361
 20
278.69260431091573
 11
627.15869182208371
 21
284.31060431091583
  0
LINE
  8
_0-0_本体
  6
CONTINUOUS
 62
    7
 10
627.15869182208371
 20
279.47100431091582
 11
628.05039182208361
 21
278.69260431091573
  0
LINE
  8
_0-0_本体
  6
CONTINUOUS
 62
    7
 10
626.26699182208347
 20
283.53220431091574
 11
627.15869182208371
 21
279.47100431091582
  0
LINE
  8
_0-0_本体
  6
CONTINUOUS
 62
    7
 10
638.75119182208346
 20
283.53220431091574
 11
639.6428918220837
 21
279.47100431091582
  0
LINE
  8
_0-0_本体
  6
CONTINUOUS
 62
    7
 10
639.6428918220837
 20
279.47100431091582
 11
640.53459182208371
 21
278.69260431091573
  0
LINE
  8
_0-0_本体
  6
CONTINUOUS
 62
    7
 10
640.53459182208371
 20
278.69260431091573
 11
639.6428918220837
 21
284.31060431091583
  0
LINE
  8
_0-0_本体
  6
CONTINUOUS
 62
    7
 10
639.6428918220837
 20
284.31060431091583
 11
638.75119182208346
 21
283.53220431091574
  0
LINE
  8
_0-0_本体
  6
CONTINUOUS
 62
    7
 10
637.85939182208369
 20
284.31060431091583
 11
638.75119182208346
 21
278.69260431091573
  0
LINE
  8
_0-0_本体
  6
CONTINUOUS
 62
    7
 10
638.75119182208346
 20
278.69260431091573
 11
639.6428918220837
 21
279.47100431091582
  0
LINE
  8
_0-0_本体
  6
CONTINUOUS
 62
    7
 10
639.6428918220837
 20
279.47100431091582
 11
638.75119182208346
 21
283.53220431091574
  0
LINE
  8
_0-0_本体
  6
CONTINUOUS
 62
    7
 10
638.75119182208346
 20
283.53220431091574
 11
637.85939182208369
 21
284.31060431091583
  0
LINE
  8
_0-0_本体
  6
CONTINUOUS
 62
    7
 10
636.96769182208368
 20
283.53220431091574
 11
637.85939182208369
 21
279.47100431091582
  0
LINE
  8
_0-0_本体
  6
CONTINUOUS
 62
    7
 10
637.85939182208369
 20
279.47100431091582
 11
638.75119182208346
 21
278.69260431091573
  0
LINE
  8
_0-0_本体
  6
CONTINUOUS
 62
    7
 10
638.75119182208346
 20
278.69260431091573
 11
637.85939182208369
 21
284.31060431091583
  0
LINE
  8
_0-0_本体
  6
CONTINUOUS
 62
    7
 10
637.85939182208369
 20
284.31060431091583
 11
636.96769182208368
 21
283.53220431091574
  0
LINE
  8
_0-0_本体
  6
CONTINUOUS
 62
    7
 10
636.07599182208355
 20
284.31060431091583
 11
636.96769182208368
 21
278.69260431091573
  0
LINE
  8
_0-0_本体
  6
CONTINUOUS
 62
    7
 10
636.96769182208368
 20
278.69260431091573
 11
637.85939182208369
 21
279.47100431091582
  0
LINE
  8
_0-0_本体
  6
CONTINUOUS
 62
    7
 10
637.85939182208369
 20
279.47100431091582
 11
636.96769182208368
 21
283.53220431091574
  0
LINE
  8
_0-0_本体
  6
CONTINUOUS
 62
    7
 10
636.96769182208368
 20
283.53220431091574
 11
636.07599182208355
 21
284.31060431091583
  0
LINE
  8
_0-0_本体
  6
CONTINUOUS
 62
    7
 10
635.18419182208356
 20
283.53220431091574
 11
636.07599182208355
 21
279.47100431091582
  0
LINE
  8
_0-0_本体
  6
CONTINUOUS
 62
    7
 10
636.07599182208355
 20
279.47100431091582
 11
636.96769182208368
 21
278.69260431091573
  0
LINE
  8
_0-0_本体
  6
CONTINUOUS
 62
    7
 10
636.96769182208368
 20
278.69260431091573
 11
636.07599182208355
 21
284.31060431091583
  0
LINE
  8
_0-0_本体
  6
CONTINUOUS
 62
    7
 10
636.07599182208355
 20
284.31060431091583
 11
635.18419182208356
 21
283.53220431091574
  0
LINE
  8
_0-0_本体
  6
CONTINUOUS
 62
    7
 10
634.29249182208355
 20
284.31060431091583
 11
635.18419182208356
 21
278.69260431091573
  0
LINE
  8
_0-0_本体
  6
CONTINUOUS
 62
    7
 10
635.18419182208356
 20
278.69260431091573
 11
636.07599182208355
 21
279.47100431091582
  0
LINE
  8
_0-0_本体
  6
CONTINUOUS
 62
    7
 10
636.07599182208355
 20
279.47100431091582
 11
635.18419182208356
 21
283.53220431091574
  0
LINE
  8
_0-0_本体
  6
CONTINUOUS
 62
    7
 10
635.18419182208356
 20
283.53220431091574
 11
634.29249182208355
 21
284.31060431091583
  0
LINE
  8
_0-0_本体
  6
CONTINUOUS
 62
    7
 10
633.40089182208351
 20
283.53220431091574
 11
634.29249182208355
 21
279.47100431091582
  0
LINE
  8
_0-0_本体
  6
CONTINUOUS
 62
    7
 10
634.29249182208355
 20
279.47100431091582
 11
635.18419182208356
 21
278.69260431091573
  0
LINE
  8
_0-0_本体
  6
CONTINUOUS
 62
    7
 10
635.18419182208356
 20
278.69260431091573
 11
634.29249182208355
 21
284.31060431091583
  0
LINE
  8
_0-0_本体
  6
CONTINUOUS
 62
    7
 10
634.29249182208355
 20
284.31060431091583
 11
633.40089182208351
 21
283.53220431091574
  0
LINE
  8
_0-0_本体
  6
CONTINUOUS
 62
    7
 10
632.50909182208375
 20
284.31060431091583
 11
633.40089182208351
 21
278.69260431091573
  0
LINE
  8
_0-0_本体
  6
CONTINUOUS
 62
    7
 10
633.40089182208351
 20
278.69260431091573
 11
634.29249182208355
 21
279.47100431091582
  0
LINE
  8
_0-0_本体
  6
CONTINUOUS
 62
    7
 10
634.29249182208355
 20
279.47100431091582
 11
633.40089182208351
 21
283.53220431091574
  0
LINE
  8
_0-0_本体
  6
CONTINUOUS
 62
    7
 10
633.40089182208351
 20
283.53220431091574
 11
632.50909182208375
 21
284.31060431091583
  0
LINE
  8
_0-0_本体
  6
CONTINUOUS
 62
    7
 10
631.61739182208373
 20
283.53220431091574
 11
632.50909182208375
 21
279.47100431091582
  0
LINE
  8
_0-0_本体
  6
CONTINUOUS
 62
    7
 10
632.50909182208375
 20
279.47100431091582
 11
633.40089182208351
 21
278.69260431091573
  0
LINE
  8
_0-0_本体
  6
CONTINUOUS
 62
    7
 10
633.40089182208351
 20
278.69260431091573
 11
632.50909182208375
 21
284.31060431091583
  0
LINE
  8
_0-0_本体
  6
CONTINUOUS
 62
    7
 10
632.50909182208375
 20
284.31060431091583
 11
631.61739182208373
 21
283.53220431091574
  0
LINE
  8
_0-0_本体
  6
CONTINUOUS
 62
    7
 10
630.72569182208372
 20
284.31060431091583
 11
631.61739182208373
 21
278.69260431091573
  0
LINE
  8
_0-0_本体
  6
CONTINUOUS
 62
    7
 10
631.61739182208373
 20
278.69260431091573
 11
632.50909182208375
 21
279.47100431091582
  0
LINE
  8
_0-0_本体
  6
CONTINUOUS
 62
    7
 10
632.50909182208375
 20
279.47100431091582
 11
631.61739182208373
 21
283.53220431091574
  0
LINE
  8
_0-0_本体
  6
CONTINUOUS
 62
    7
 10
631.61739182208373
 20
283.53220431091574
 11
630.72569182208372
 21
284.31060431091583
  0
LINE
  8
_0-0_本体
  6
CONTINUOUS
 62
    7
 10
629.83389182208361
 20
283.53220431091574
 11
630.72569182208372
 21
279.47100431091582
  0
LINE
  8
_0-0_本体
  6
CONTINUOUS
 62
    7
 10
630.72569182208372
 20
279.47100431091582
 11
631.61739182208373
 21
278.69260431091573
  0
LINE
  8
_0-0_本体
  6
CONTINUOUS
 62
    7
 10
631.61739182208373
 20
278.69260431091573
 11
630.72569182208372
 21
284.31060431091583
  0
LINE
  8
_0-0_本体
  6
CONTINUOUS
 62
    7
 10
630.72569182208372
 20
284.31060431091583
 11
629.83389182208361
 21
283.53220431091574
  0
LINE
  8
_0-0_本体
  6
CONTINUOUS
 62
    7
 10
628.9421918220836
 20
284.31060431091583
 11
629.83389182208361
 21
278.69260431091573
  0
LINE
  8
_0-0_本体
  6
CONTINUOUS
 62
    7
 10
629.83389182208361
 20
278.69260431091573
 11
630.72569182208372
 21
279.47100431091582
  0
LINE
  8
_0-0_本体
  6
CONTINUOUS
 62
    7
 10
630.72569182208372
 20
279.47100431091582
 11
629.83389182208361
 21
283.53220431091574
  0
LINE
  8
_0-0_本体
  6
CONTINUOUS
 62
    7
 10
629.83389182208361
 20
283.53220431091574
 11
628.9421918220836
 21
284.31060431091583
  0
LINE
  8
_0-0_本体
  6
CONTINUOUS
 62
    7
 10
628.0504918220837
 20
283.53220431091574
 11
628.9421918220836
 21
279.47100431091582
  0
LINE
  8
_0-0_本体
  6
CONTINUOUS
 62
    7
 10
628.9421918220836
 20
279.47100431091582
 11
629.83389182208361
 21
278.69260431091573
  0
LINE
  8
_0-0_本体
  6
CONTINUOUS
 62
    7
 10
629.83389182208361
 20
278.69260431091573
 11
628.9421918220836
 21
284.31060431091583
  0
LINE
  8
_0-0_本体
  6
CONTINUOUS
 62
    7
 10
628.9421918220836
 20
284.31060431091583
 11
628.0504918220837
 21
283.53220431091574
  0
LINE
  8
_0-0_本体
  6
CONTINUOUS
 62
    7
 10
640.53469182208346
 20
283.53220431091574
 11
639.6428918220837
 21
284.31060431091583
  0
LINE
  8
_0-0_本体
  6
CONTINUOUS
 62
    7
 10
641.42639182208359
 20
279.47100431091582
 11
640.53469182208346
 21
283.53220431091574
  0
LINE
  8
_0-0_本体
  6
CONTINUOUS
 62
    7
 10
640.53469182208346
 20
278.69260431091573
 11
641.42639182208359
 21
279.47100431091582
  0
LINE
  8
_0-0_本体
  6
CONTINUOUS
 62
    7
 10
639.6428918220837
 20
284.31060431091583
 11
640.53469182208346
 21
278.69260431091573
  0
LINE
  8
_0-0_本体
  6
CONTINUOUS
 62
    7
 10
641.42639182208359
 20
284.31060431091583
 11
640.53469182208346
 21
283.53220431091574
  0
LINE
  8
_0-0_本体
  6
CONTINUOUS
 62
    7
 10
642.31809182208372
 20
278.69260431091573
 11
641.42639182208359
 21
284.31060431091583
  0
LINE
  8
_0-0_本体
  6
CONTINUOUS
 62
    7
 10
641.42639182208359
 20
279.47100431091582
 11
642.31809182208372
 21
278.69260431091573
  0
LINE
  8
_0-0_本体
  6
CONTINUOUS
 62
    7
 10
640.53469182208346
 20
283.53220431091574
 11
641.42639182208359
 21
279.47100431091582
  0
LINE
  8
_0-0_本体
  6
CONTINUOUS
 62
    7
 10
642.31819182208346
 20
283.53220431091574
 11
641.42639182208359
 21
284.31060431091583
  0
LINE
  8
_0-0_本体
  6
CONTINUOUS
 62
    7
 10
643.20989182208359
 20
279.47100431091582
 11
642.31819182208346
 21
283.53220431091574
  0
LINE
  8
_0-0_本体
  6
CONTINUOUS
 62
    7
 10
642.31819182208346
 20
278.69260431091573
 11
643.20989182208359
 21
279.47100431091582
  0
LINE
  8
_0-0_本体
  6
CONTINUOUS
 62
    7
 10
641.42639182208359
 20
284.31060431091583
 11
642.31819182208346
 21
278.69260431091573
  0
LINE
  8
_0-0_本体
  6
CONTINUOUS
 62
    7
 10
643.20989182208359
 20
284.31060431091583
 11
642.31819182208346
 21
283.53220431091574
  0
LINE
  8
_0-0_本体
  6
CONTINUOUS
 62
    7
 10
644.10159182208361
 20
278.69260431091573
 11
643.20989182208359
 21
284.31060431091583
  0
LINE
  8
_0-0_本体
  6
CONTINUOUS
 62
    7
 10
643.20989182208359
 20
279.47100431091582
 11
644.10159182208361
 21
278.69260431091573
  0
LINE
  8
_0-0_本体
  6
CONTINUOUS
 62
    7
 10
642.31819182208346
 20
283.53220431091574
 11
643.20989182208359
 21
279.47100431091582
  0
LINE
  8
_0-0_本体
  6
CONTINUOUS
 62
    7
 10
627.15869182208371
 20
284.31060431091583
 11
628.0504918220837
 21
278.69260431091573
  0
LINE
  8
_0-0_本体
  6
CONTINUOUS
 62
    7
 10
628.0504918220837
 20
278.69260431091573
 11
628.9421918220836
 21
279.47100431091582
  0
LINE
  8
_0-0_本体
  6
CONTINUOUS
 62
    7
 10
628.9421918220836
 20
279.47100431091582
 11
628.0504918220837
 21
283.53220431091574
  0
LINE
  8
_0-0_本体
  6
CONTINUOUS
 62
    7
 10
628.0504918220837
 20
283.53220431091574
 11
627.15869182208371
 21
284.31060431091583
  0
LINE
  8
_0-0_本体
  6
CONTINUOUS
 62
    7
 10
644.10169182208347
 20
283.53220431091574
 11
643.20989182208359
 21
284.31060431091583
  0
LINE
  8
_0-0_本体
  6
CONTINUOUS
 62
    7
 10
644.99339182208359
 20
279.47100431091582
 11
644.10169182208347
 21
283.53220431091574
  0
LINE
  8
_0-0_本体
  6
CONTINUOUS
 62
    7
 10
644.10169182208347
 20
278.69260431091573
 11
644.99339182208359
 21
279.47100431091582
  0
LINE
  8
_0-0_本体
  6
CONTINUOUS
 62
    7
 10
643.20989182208359
 20
284.31060431091583
 11
644.10169182208347
 21
278.69260431091573
  0
LINE
  8
_0-0_本体
  6
CONTINUOUS
 62
    7
 10
644.99339182208359
 20
284.31060431091583
 11
644.10169182208347
 21
283.53220431091574
  0
LINE
  8
_0-0_本体
  6
CONTINUOUS
 62
    7
 10
645.88509182208361
 20
278.69260431091573
 11
644.99339182208359
 21
284.31060431091583
  0
LINE
  8
_0-0_本体
  6
CONTINUOUS
 62
    7
 10
644.99339182208359
 20
279.47100431091582
 11
645.88509182208361
 21
278.69260431091573
  0
LINE
  8
_0-0_本体
  6
CONTINUOUS
 62
    7
 10
644.10169182208347
 20
283.53220431091574
 11
644.99339182208359
 21
279.47100431091582
  0
LINE
  8
_0-0_本体
  6
CONTINUOUS
 62
    7
 10
645.88519182208347
 20
283.53220431091574
 11
644.99339182208359
 21
284.31060431091583
  0
LINE
  8
_0-0_本体
  6
CONTINUOUS
 62
    7
 10
646.7768918220836
 20
279.47100431091582
 11
645.88519182208347
 21
283.53220431091574
  0
LINE
  8
_0-0_本体
  6
CONTINUOUS
 62
    7
 10
645.88519182208347
 20
278.69260431091573
 11
646.7768918220836
 21
279.47100431091582
  0
LINE
  8
_0-0_本体
  6
CONTINUOUS
 62
    7
 10
644.99339182208359
 20
284.31060431091583
 11
645.88519182208347
 21
278.69260431091573
  0
LINE
  8
_0-0_本体
  6
CONTINUOUS
 62
    7
 10
646.7768918220836
 20
284.31060431091583
 11
645.88519182208347
 21
283.53220431091574
  0
LINE
  8
_0-0_本体
  6
CONTINUOUS
 62
    7
 10
647.66859182208373
 20
278.69260431091573
 11
646.7768918220836
 21
284.31060431091583
  0
LINE
  8
_0-0_本体
  6
CONTINUOUS
 62
    7
 10
646.7768918220836
 20
279.47100431091582
 11
647.66859182208373
 21
278.69260431091573
  0
LINE
  8
_0-0_本体
  6
CONTINUOUS
 62
    7
 10
645.88519182208347
 20
283.53220431091574
 11
646.7768918220836
 21
279.47100431091582
  0
LINE
  8
_0-0_本体
  6
CONTINUOUS
 62
    7
 10
648.5603918220836
 20
284.31060431091583
 11
647.66869182208347
 21
283.53220431091574
  0
LINE
  8
_0-0_本体
  6
CONTINUOUS
 62
    7
 10
649.45209182208362
 20
278.69260431091573
 11
648.5603918220836
 21
284.31060431091583
  0
LINE
  8
_0-0_本体
  6
CONTINUOUS
 62
    7
 10
648.5603918220836
 20
279.47100431091582
 11
649.45209182208362
 21
278.69260431091573
  0
LINE
  8
_0-0_本体
  6
CONTINUOUS
 62
    7
 10
647.66869182208347
 20
283.53220431091574
 11
648.5603918220836
 21
279.47100431091582
  0
LINE
  8
_0-0_本体
  6
CONTINUOUS
 62
    7
 10
647.66869182208347
 20
283.53220431091574
 11
646.7768918220836
 21
284.31060431091583
  0
LINE
  8
_0-0_本体
  6
CONTINUOUS
 62
    7
 10
648.5603918220836
 20
279.47100431091582
 11
647.66869182208347
 21
283.53220431091574
  0
LINE
  8
_0-0_本体
  6
CONTINUOUS
 62
    7
 10
647.66869182208347
 20
278.69260431091573
 11
648.5603918220836
 21
279.47100431091582
  0
LINE
  8
_0-0_本体
  6
CONTINUOUS
 62
    7
 10
646.7768918220836
 20
284.31060431091583
 11
647.66869182208347
 21
278.69260431091573
  0
LINE
  8
_0-0_本体
  6
CONTINUOUS
 62
    7
 10
649.65729182208361
 20
283.71140431091573
 11
649.45209182208362
 21
283.53220431091574
  0
LINE
  8
_0-0_本体
  6
CONTINUOUS
 62
    7
 10
648.5603918220836
 20
284.31060431091583
 11
649.45209182208362
 21
278.69260431091573
  0
LINE
  8
_0-0_本体
  6
CONTINUOUS
 62
    7
 10
649.45209182208362
 20
278.69260431091573
 11
650.3437918220834
 21
279.47100431091582
  0
LINE
  8
_0-0_本体
  6
CONTINUOUS
 62
    7
 10
650.3437918220834
 20
279.47100431091582
 11
649.45209182208362
 21
283.53220431091574
  0
LINE
  8
_0-0_本体
  6
CONTINUOUS
 62
    7
 10
649.45209182208362
 20
283.53220431091574
 11
648.5603918220836
 21
284.31060431091583
  0
LINE
  8
_0-0_本体
  6
CONTINUOUS
 62
    7
 10
649.65729182208361
 20
283.71140431091573
 11
657.79909182208371
 21
281.34360430203105
  0
LINE
  8
_0-0_本体
  6
CONTINUOUS
 62
    7
 10
657.79909182208371
 20
281.34360430203105
 11
650.32510603610308
 21
279.55610772464661
  0
LINE
  8
_0-0_本体
  6
CONTINUOUS
 62
    7
 10
657.03010746716313
 20
281.159692137646
 11
656.96228554880815
 21
281.58696448052922
  0
LINE
  8
_0-0_本体
  6
CONTINUOUS
 62
    7
 10
651.0701061951097
 20
279.7342837705354
 11
650.47663155432588
 21
283.47312375559841
  0
LINE
  8
_0-0_本体
  6
CONTINUOUS
 62
    7
 10
651.81510635411632
 20
279.91245981642419
 11
651.28733830363626
 21
283.23735384621472
  0
LINE
  8
_0-0_本体
  6
CONTINUOUS
 62
    7
 10
652.56010651312306
 20
280.09063586231309
 11
652.09804505294665
 21
283.00158393683114
  0
LINE
  8
_0-0_本体
  6
CONTINUOUS
 62
    7
 10
653.30510667212968
 20
280.26881190820188
 11
652.9087518022568
 21
282.76581402744739
  0
LINE
  8
_0-0_本体
  6
CONTINUOUS
 62
    7
 10
654.05010683113642
 20
280.44698795409073
 11
653.71945855156707
 21
282.53004411806381
  0
LINE
  8
_0-0_本体
  6
CONTINUOUS
 62
    7
 10
654.79510699014304
 20
280.62516399997952
 11
654.53016530087734
 21
282.29427420868012
  0
LINE
  8
_0-0_本体
  6
CONTINUOUS
 62
    7
 10
655.54010714914978
 20
280.80334004586837
 11
655.34087205018761
 21
282.05850429929649
  0
LINE
  8
_0-0_本体
  6
CONTINUOUS
 62
    7
 10
656.2851073081564
 20
280.98151609175721
 11
656.15157879949788
 21
281.82273438991291
  0
LINE
  8
_0-0_本体
  6
DASHED1
 62
    7
 10
582.79909182208371
 20
273.63040431091582
 11
569.79909182208371
 21
273.63040431091582
  0
LINE
  8
_0-0_本体
  6
DASHED1
 62
    7
 10
582.79909182208371
 20
289.37280431091574
 11
569.79909182208371
 21
289.37280431091574
  0
LINE
  8
_0-0_本体
  6
CONTINUOUS
 62
    7
 10
569.79909182208371
 20
273.63040431091582
 11
563.79909182208371
 21
273.63040431091582
  0
LINE
  8
_0-0_本体
  6
CONTINUOUS
 62
    7
 10
569.79909182208371
 20
273.63040431091582
 11
569.79909182208371
 21
289.37280431091574
  0
LINE
  8
_0-0_本体
  6
CONTINUOUS
 62
    7
 10
563.79909182208371
 20
289.37280431091574
 11
569.79909182208371
 21
289.37280431091574
  0
LINE
  8
_0-0_本体
  6
CONTINUOUS
 62
    7
 10
562.79909182208371
 20
271.63040431091588
 11
562.79909182208371
 21
291.37280431091574
  0
LINE
  8
_0-0_本体
  6
CONTINUOUS
 62
    7
 10
563.79909182208371
 20
271.63040431091588
 11
562.79909182208371
 21
271.63040431091588
  0
LINE
  8
_0-0_本体
  6
CONTINUOUS
 62
    7
 10
563.79909182208371
 20
291.37280431091574
 11
562.79909182208371
 21
291.37280431091574
  0
LINE
  8
_0-0_本体
  6
CENTER2
 62
   18
 10
558.79909182208371
 20
281.34360430203105
 11
662.79909182208371
 21
281.34360430203105
  0
SOLID
  8
_0-f_
  6
CONTINUOUS
 62
    7
 10
562.57933357617856
 20
270.46846185955724
 11
560.02711751827201
 21
260.94346185955715
 12
555.6065496340849
 22
263.49567791746364
 13
555.6065496340849
 23
263.49567791746364
  0
TEXT
  8
_0-e_文字
 62
    7
 10
477.56030575773593
 20
222.67832567698173
 40
9
 41
1
 50
0
  1
樹脂キャップ
  0
LINE
  8
_0-f_
  6
CONTINUOUS
 62
    7
 10
531.27362884524325
 20
228.43412369525964
 11
538.31080843702102
 21
228.43412369525964
  0
LINE
  8
_0-f_
  6
CONTINUOUS
 62
    7
 10
538.31080843702102
 20
228.43412369525964
 11
562.57933357617856
 21
270.46846185955724
  0
CIRCLE
  8
_0-0_本体
  6
CONTINUOUS
 62
    7
 10
577.78659182208366
 20
365.09360430203105
 40
14.25
  0
CIRCLE
  8
_0-0_本体
  6
CONTINUOUS
 62
   18
 10
577.78659182208366
 20
365.09360430203105
 40
1
  0
CIRCLE
  8
_0-0_本体
  6
CONTINUOUS
 62
   18
 10
577.78659182208366
 20
365.09360430203105
 40
6.9999999999999991
  0
CIRCLE
  8
_0-0_本体
  6
CONTINUOUS
 62
   18
 10
577.78659182208366
 20
365.09360430203105
 40
13.75
  0
LINE
  8
_0-0_本体
  6
CENTER1
 62
   18
 10
594.03659182208378
 20
365.09360430203105
 11
561.53659182208378
 21
365.09360430203105
  0
LINE
  8
_0-d_寸法
  6
CONTINUOUS
 62
   18
 10
587.86286345399208
 20
375.16987593393935
 11
567.71032019017548
 21
355.0173326701227
  0
POINT
  8
_0-d_寸法
 62
    7
 10
567.71032019017548
 20
355.0173326701227
  0
POINT
  8
_0-d_寸法
 62
    7
 10
587.86286345399208
 20
375.16987593393935
  0
TEXT
  8
_0-d_寸法
 62
    4
 10
572.78833701034216
 20
361.63516244185638
 40
6.0000000000001998
 41
0.9999999999999618
 50
45.000000000001151
  1
28.5
  0
LINE
  8
_0-0_本体
  6
CONTINUOUS
 62
    7
 10
572.28659182208366
 20
351.94778747689611
 11
572.28659182208366
 21
343.34360430203105
  0
LINE
  8
_0-0_本体
  6
CENTER1
 62
   18
 10
577.78659182208366
 20
381.34360430203105
 11
577.78659182208366
 21
348.84360430203105
  0
TEXT
  8
_0-e_文字
 62
    7
 10
679.82021921312514
 20
305.37475266638648
 40
9
 41
1
 50
0
  1
変成シリコーンシーリング
  0
LINE
  8
_0-0_本体
  6
CONTINUOUS
 62
   18
 10
579.28659182208366
 20
307.34360430203105
 11
579.28659182208366
 21
296.343604302031
  0
LINE
  8
_0-0_本体
  6
CONTINUOUS
 62
    7
 10
579.28659182208366
 20
350.92277158126262
 11
579.28659182208366
 21
307.34360430203105
  0
LINE
  8
_0-0_本体
  6
CONTINUOUS
 62
    7
 10
583.28659182208366
 20
351.94778747689611
 11
583.28659182208366
 21
307.34360430203105
  0
LINE
  8
_0-0_本体
  6
CONTINUOUS
 62
    7
 10
583.28659182208366
 20
307.34360430203105
 11
579.28659182208366
 21
307.34360430203105
  0
LINE
  8
_0-0_本体
  6
CONTINUOUS
 62
    7
 10
576.28659182208366
 20
307.34360430203105
 11
574.14924224486117
 21
307.34360430203105
  0
LINE
  8
_0-0_本体
  6
CONTINUOUS
 62
    7
 10
576.28659182208366
 20
350.92277158126262
 11
576.28659182208366
 21
307.34360430203105
  0
LINE
  8
_0-0_本体
  6
DASHED1
 62
    7
 10
574.14924224486117
 20
307.34360430203105
 11
572.28659182208366
 21
307.34360430203105
  0
LINE
  8
_0-0_本体
  6
DASHED1
 62
    7
 10
572.28659182208366
 20
343.34360430203105
 11
572.28659182208366
 21
307.34360430203105
  0
LINE
  8
_2-d_
  6
CONTINUOUS
 62
   18
 10
544.52434378367047
 20
554.88173766093041
 11
544.52434378367047
 21
505.69840392924823
  0
LINE
  8
_2-d_
  6
CONTINUOUS
 62
   18
 10
518.1243437836705
 20
554.88173766093041
 11
518.1243437836705
 21
505.69840392924823
  0
LINE
  8
_2-d_
  6
CONTINUOUS
 62
   18
 10
707.51090137237054
 20
554.88173766093041
 11
707.51090137237054
 21
505.69840392924823
  0
LINE
  8
_2-d_
  6
CONTINUOUS
 62
   18
 10
733.91090137237052
 20
554.88173766093041
 11
733.91090137237052
 21
505.69840392924823
  0
LINE
  8
_2-d_
  6
CONTINUOUS
 62
   18
 10
739.91090137237052
 20
511.69840392924823
 11
512.1243437836705
 21
511.69840392924823
  0
CIRCLE
  8
_2-d_
  6
CONTINUOUS
 62
   18
 10
518.1243437836705
 20
511.69840392924823
 40
1.7999999999999998
  0
CIRCLE
  8
_2-d_
  6
CONTINUOUS
 62
   18
 10
544.52434378367047
 20
511.69840392924823
 40
1.7999999999999998
  0
CIRCLE
  8
_2-d_
  6
CONTINUOUS
 62
   18
 10
707.51090137237054
 20
511.69840392924823
 40
1.7999999999999998
  0
CIRCLE
  8
_2-d_
  6
CONTINUOUS
 62
   18
 10
733.91090137237052
 20
511.69840392924823
 40
1.7999999999999998
  0
TEXT
  8
_2-d_
 62
    4
 10
526.82434378367043
 20
513.19840392924823
 40
9
 41
1
 50
0
  1
44
  0
TEXT
  8
_2-d_
 62
    4
 10
716.21090137237047
 20
513.19840392924823
 40
9
 41
1
 50
0
  1
44
  0
TEXT
  8
_2-e_
 62
    4
 10
525.62899087560299
 20
581.88087323665491
 40
9
 41
1
 50
0
  1
枠
  0
TEXT
  8
_2-e_
 62
    4
 10
719.12766022242465
 20
582.15834258487666
 40
9
 41
1
 50
0
  1
枠
  0
TEXT
  8
_2-e_
 62
    4
 10
676.70045210284582
 20
663.04474655385775
 40
9
 41
1
 50
0
  1
ドア
  0
TEXT
  8
_1-e_
 62
    4
 10
353.38064516129032
 20
518.2674148951985
 40
7.5
 41
1
 50
0
  1
枠固定ビス取付位置
  0
LINE
  8
_2-d_
  6
CONTINUOUS
 62
   18
 10
664.45340137237054
 20
554.88173766093041
 11
664.45340137237054
 21
505.69840392924823
  0
CIRCLE
  8
_2-d_
  6
CONTINUOUS
 62
   18
 10
664.45340137237054
 20
511.69840392924823
 40
1.7999999999999998
  0
TEXT
  8
_2-d_
 62
    4
 10
682.29445518061539
 20
515.1410286903523
 40
9
 41
1
 50
0
  1
84
  0
TEXT
  8
_2-d_
 62
    4
 10
581.20761111936974
 20
513.43922996878257
 40
9
 41
1
 50
0
  1
有効開口816
  0
TEXT
  8
_0-e_文字
 62
    7
 10
186.42455775234134
 20
416.86375799018879
 40
9
 41
1
 50
0
  1
変性シリコーンシーリング
  0
TEXT
  8
_0-e_文字
 62
    4
 10
258.29397948565486
 20
408.56775680095143
 40
7.5000000000000853
 41
0.9999999999999864
 50
0
  1
(建築工事)
  0
LINE
  8
_0-1_躯体
  6
CONTINUOUS
 62
    7
 10
357.60509182208375
 20
343.34360430203105
 11
241.60509182208375
 21
343.34360430203105
  0
LINE
  8
_0-1_躯体
  6
CONTINUOUS
 62
    7
 10
367.60509182208364
 20
301.34360430203105
 11
367.60509182208364
 21
261.34360430203105
  0
LINE
  8
_0-1_躯体
  6
CONTINUOUS
 62
    7
 10
367.60509182208364
 20
261.34360430203105
 11
357.60509182208375
 21
261.34360430203105
  0
TEXT
  8
_0-e_文字
 62
    7
 10
282.72250116009502
 20
187.19039418446187
 40
9
 41
1
 50
0
  1
断熱材
  0
TEXT
  8
_0-e_文字
 62
    4
 10
283.29870510052803
 20
179.25127123752037
 40
7.4999999999999574
 41
1.0000000000000027
 50
0
  1
(建築工事)
  0
LINE
  8
_0-f_
  6
CONTINUOUS
 62
    7
 10
311.76620737627013
 20
192.38790252957233
 11
325.99177394015578
 21
192.38790252957233
  0
LINE
  8
_0-f_
  6
CONTINUOUS
 62
    7
 10
325.99177394015578
 20
192.38790252957233
 11
357.83027930225006
 21
247.53380248303361
  0
TEXT
  8
_0-e_文字
 62
    4
 10
281.94834055947592
 20
202.66713242303339
 40
7.4999999999999574
 41
1.0000000000000027
 50
0
  1
(建築工事)
  0
LINE
  8
_0-f_
  6
CONTINUOUS
 62
    7
 10
310.41584283521803
 20
215.80376371508535
 11
324.47117605578154
 21
215.80376371508535
  0
LINE
  8
_0-f_
  6
CONTINUOUS
 62
    7
 10
324.47117605578154
 20
215.80376371508535
 11
357.97806347758313
 21
273.8393856923168
  0
TEXT
  8
_0-e_文字
 62
    7
 10
281.37213661904292
 20
210.60625536997489
 40
9
 41
1
 50
0
  1
クサビ
  0
LINE
  8
_0-1_躯体
  6
CONTINUOUS
 62
    7
 10
617.79909182208371
 20
343.34360430203105
 11
617.79909182208371
 21
238.34360430203105
  0
LINE
  8
_0-1_躯体
  6
CONTINUOUS
 62
    7
 10
617.79909182208371
 20
343.34360430203105
 11
733.79909182208348
 21
343.34360430203105
  0
SOLID
  8
_0-f_
  6
CONTINUOUS
 62
    7
 10
357.83027930225006
 20
247.53380248303361
 11
355.11221778789604
 21
238.0547954986273
 12
350.73686548956755
 22
240.68377238906461
 13
350.73686548956755
 23
240.68377238906461
  0
SOLID
  8
_0-f_
  6
CONTINUOUS
 62
    7
 10
374.90096696732957
 20
215.92960656496109
 11
381.87375090942305
 21
208.95682262286761
 12
377.45318302523594
 22
206.40460656496106
 13
377.45318302523594
 23
206.40460656496106
  0
LINE
  8
_0-1_躯体
  6
CONTINUOUS
 62
    7
 10
649.52479588960489
 20
299.20822691066206
 11
649.50917238104103
 21
299.19767430385525
  0
LINE
  8
_0-1_躯体
  6
CONTINUOUS
 62
    7
 10
617.79909182208371
 20
301.34360430203105
 11
617.79909182208371
 21
261.34360430203105
  0
LINE
  8
_0-1_躯体
  6
CONTINUOUS
 62
    7
 10
617.79909182208371
 20
301.34360430203105
 11
607.79909182208371
 21
301.34360430203105
  0
LINE
  8
_0-1_躯体
  6
CONTINUOUS
 62
    7
 10
617.79909182208371
 20
261.34360430203105
 11
607.79909182208371
 21
261.34360430203105
  0
LINE
  8
_0-1_躯体
  6
CONTINUOUS
 62
    7
 10
607.79909182208371
 20
301.34360430203105
 11
607.79909182208371
 21
261.34360430203105
  0
LINE
  8
_0-1_躯体
  6
CONTINUOUS
 62
    7
 10
357.60509182208375
 20
301.34360430203105
 11
357.60509182208375
 21
261.34360430203105
  0
LINE
  8
_0-1_躯体
  6
CONTINUOUS
 62
    7
 10
617.79909182208371
 20
301.34360430203105
 11
607.79909182208371
 21
261.34360430203105
  0
LINE
  8
_0-7_ハッチ
  6
CONTINUOUS
 62
   18
 10
886.93239971334344
 20
249.17793037070501
 11
870.29239971334323
 21
232.53793037070488
  0
TEXT
  8
_0-e_文字
 62
    7
 10
260.70967741935488
 20
245.75806451612902
 40
9
 41
1
 50
0
  1
105x105
  0
TEXT
  8
_0-1_躯体
 62
    4
 10
1014.5679797829642
 20
553.10184331797245
 40
9
 41
1
 50
0
  1
105x45
  0
TEXT
  8
_0-e_文字
 62
    7
 10
820.17547197859381
 20
711.3391556414449
 40
9
 41
1
 50
0
  1
外壁材t＝14
  0
LINE
  8
_0-d_寸法
  6
CONTINUOUS
 62
   18
 10
1054.0923997133432
 20
672.06456181024328
 11
1073.0923997133432
 21
672.06456181024328
  0
TEXT
  8
_0-e_文字
 62
    7
 10
827.02527075812282
 20
602.3664259927798
 40
9
 41
1
 50
0
  1
防水シート
  0
TEXT
  8
_0-e_文字
 62
    4
 10
835.6909281471992
 20
569.6658320717363
 40
7.5000000000000853
 41
0.9999999999999932
 50
0
  1
(建築工事)
  0
TEXT
  8
_0-e_文字
 62
    7
 10
835.6909281471992
 20
578.3314894608128
 40
9
 41
1
 50
0
  1
水切鉄板
  0
TEXT
  8
_f-0_
 62
    4
 10
1030.3829344432881
 20
64.595703879887026
 40
10.5
 41
1
 50
0
  1
S=1:3、1：5
  0
TEXT
  8
_f-0_
 62
    4
 10
1067.2442163398205
 20
53.429155977116807
 40
10.5
 41
1
 50
0
  1
1：30
  0
TEXT
  8
_1-d_
 62
    4
 10
173.46793206172043
 20
775.2297989115242
 40
7.5
 41
1
 50
0
  1
47
  0
CIRCLE
  8
_1-d_
  6
CONTINUOUS
 62
   18
 10
194.23331485180418
 20
784.61170514821879
 40
1.7254760742187498
  0
LINE
  8
_1-d_
  6
CONTINUOUS
 62
   18
 10
194.23331485180418
 20
764.61170514821879
 11
194.23331485180418
 21
790.61170512586705
  0
CIRCLE
  8
_1-d_
  6
CONTINUOUS
 62
   18
 10
183.73331485180631
 20
784.61170514821879
 40
1.7254760742187498
  0
LINE
  8
_1-d_
  6
CONTINUOUS
 62
   18
 10
203.23331485180537
 20
784.61170514821879
 11
174.73331485180555
 21
784.61170514821879
  0
CIRCLE
  8
_1-d_
  6
CONTINUOUS
 62
   18
 10
194.23331485180418
 20
774.67153638443722
 40
1.7254760742187498
  0
CIRCLE
  8
_1-d_
  6
CONTINUOUS
 62
   18
 10
183.73331485180631
 20
774.6715363844371
 40
1.7254760742187498
  0
LINE
  8
_1-d_
  6
CONTINUOUS
 62
   18
 10
203.23331485180537
 20
774.67153638443722
 11
174.73331485180555
 21
774.67153638443722
  0
CIRCLE
  8
_1-d_
  6
CONTINUOUS
 62
   18
 10
188.43331485180536
 20
774.67153638443722
 40
1.7254760742187498
  0
LINE
  8
_1-d_
  6
CONTINUOUS
 62
   18
 10
188.43331485180536
 20
764.61170514821879
 11
188.43331485180536
 21
780.67153636208536
  0
TEXT
  8
_1-d_
 62
    4
 10
196.47006103888418
 20
775.30190589891322
 40
7.5
 41
1
 50
0
  1
58
  0
LINE
  8
_1-d_
  6
CONTINUOUS
 62
   18
 10
183.73331485180631
 20
764.61170514821868
 11
183.73331485180631
 21
790.61170512586682
  0
TEXT
  8
_1-d_
 62
    4
 10
183.33083750199935
 20
787.64992682607544
 40
7.5
 41
1
 50
0
  1
105
  0
LINE
  8
_0-1_躯体
  6
CONTINUOUS
 62
    7
 10
357.60509182208375
 20
225.843604302031
 11
241.60509182208375
 21
225.843604302031
  0
LINE
  8
_0-7_ハッチ
  6
CONTINUOUS
 62
    7
 10
357.60509182208375
 20
238.34360430203105
 11
252.60509182208372
 21
238.34360430203105
  0
LINE
  8
_0-2_造作工事
  6
CONTINUOUS
 62
    7
 10
345.60509182208369
 20
238.34360430203105
 11
370.60509182208364
 21
238.34360430203105
  0
LINE
  8
_0-1_躯体
  6
CONTINUOUS
 62
    7
 10
357.60509182208369
 20
238.34360430203105
 11
357.60509182208369
 21
225.843604302031
  0
LINE
  8
_0-2_造作工事
  6
CONTINUOUS
 62
    7
 10
345.60509182208369
 20
225.843604302031
 11
345.60509182208369
 21
215.84360430203105
  0
LINE
  8
_0-7_ハッチ
  6
CONTINUOUS
 62
   18
 10
348.35643457434321
 20
225.843604302031
 11
345.60509182208369
 21
223.09226154977148
  0
LINE
  8
_0-7_ハッチ
  6
CONTINUOUS
 62
   18
 10
355.42750238620874
 20
225.843604302031
 11
345.60509182208369
 21
216.021193737906
  0
LINE
  8
_0-7_ハッチ
  6
CONTINUOUS
 62
   18
 10
360.85643457434333
 20
238.34360430203105
 11
357.60509182208369
 21
235.09226154977148
  0
LINE
  8
_0-7_ハッチ
  6
CONTINUOUS
 62
   18
 10
367.92750238620874
 20
238.34360430203105
 11
357.60509182208369
 21
228.021193737906
  0
LINE
  8
_0-1_躯体
  6
CONTINUOUS
 62
    7
 10
369.60509182208375
 20
238.34360430203105
 11
357.60509182208369
 21
238.34360430203105
  0
LINE
  8
_0-7_ハッチ
  6
CONTINUOUS
 62
   18
 10
374.99857019807422
 20
238.34360430203105
 11
352.49857019807428
 21
215.84360430203105
  0
LINE
  8
_0-7_ハッチ
  6
CONTINUOUS
 62
   18
 10
377.60509182208369
 20
233.87905811417511
 11
359.56963800993969
 21
215.84360430203105
  0
LINE
  8
_0-7_ハッチ
  6
CONTINUOUS
 62
   18
 10
377.60509182208369
 20
226.80799030230966
 11
366.64070582180523
 21
215.84360430203105
  0
LINE
  8
_0-7_ハッチ
  6
CONTINUOUS
 62
   18
 10
377.60509182208369
 20
219.7369224904441
 11
373.71177363367065
 21
215.84360430203105
  0
LINE
  8
_0-2_造作工事
  6
CONTINUOUS
 62
    7
 10
375.60509182208369
 20
215.84360430203105
 11
345.60509182208369
 21
215.84360430203105
  0
LINE
  8
_0-2_造作工事
  6
CONTINUOUS
 62
    7
 10
377.60509182208369
 20
217.84360430203105
 11
377.60509182208369
 21
238.34360430203105
  0
ARC
  8
_0-2_造作工事
  6
CONTINUOUS
 62
    7
 10
375.60509182208369
 20
217.84360430203105
 40
2
 50
270
 51
0
  0
LINE
  8
_0-7_ハッチ
  6
CONTINUOUS
 62
   18
 10
375.189944916424
 20
238.34360430203105
 11
411.60509182208375
 21
274.75875120769069
  0
LINE
  8
_0-3_雑工事
  6
PHANTOM1
 62
    7
 10
377.60509182208369
 20
236.84360430203094
 11
241.60509182208375
 21
236.84360430203094
  0
LINE
  8
_0-1_躯体
  6
CONTINUOUS
 62
    7
 10
617.79909182208371
 20
238.34360430203105
 11
617.79909182208371
 21
225.843604302031
  0
LINE
  8
_0-1_躯体
  6
CONTINUOUS
 62
    7
 10
617.79909182208371
 20
225.843604302031
 11
733.79909182208348
 21
225.843604302031
  0
LINE
  8
_0-2_造作工事
  6
CONTINUOUS
 62
    7
 10
629.79909182208371
 20
225.843604302031
 11
629.79909182208371
 21
215.84360430203105
  0
LINE
  8
_0-7_ハッチ
  6
CONTINUOUS
 62
   18
 10
623.25940570240164
 20
225.843604302031
 11
613.25940570240175
 21
215.84360430203105
  0
LINE
  8
_0-7_ハッチ
  6
CONTINUOUS
 62
   18
 10
629.79909182208371
 20
218.24115479798206
 11
627.4015413261327
 21
215.84360430203105
  0
LINE
  8
_0-7_ハッチ
  6
CONTINUOUS
 62
   18
 10
629.79909182208371
 20
225.31222260984754
 11
620.33047351426717
 21
215.84360430203105
  0
LINE
  8
_0-1_躯体
  6
CONTINUOUS
 62
    7
 10
617.79909182208371
 20
238.34360430203105
 11
617.79909182208371
 21
227.44682462119425
  0
LINE
  8
_0-1_躯体
  6
CONTINUOUS
 62
    7
 10
617.79909182208371
 20
227.44682462119425
 11
617.79909182208371
 21
225.843604302031
  0
LINE
  8
_0-2_造作工事
  6
CONTINUOUS
 62
    7
 10
597.79909182208371
 20
217.84360430203105
 11
597.79909182208371
 21
238.34360430203105
  0
LINE
  8
_0-2_造作工事
  6
CONTINUOUS
 62
    7
 10
599.79909182208371
 20
215.84360430203105
 11
629.79909182208371
 21
215.84360430203105
  0
ARC
  8
_0-2_造作工事
  6
CONTINUOUS
 62
    7
 10
599.79909182208371
 20
217.84360430203105
 40
2
 50
180
 51
270
  0
LINE
  8
_0-7_ハッチ
  6
CONTINUOUS
 62
   18
 10
607.47513445493973
 20
238.34360430203105
 11
597.79909182208371
 21
228.66756166917497
  0
LINE
  8
_0-7_ハッチ
  6
CONTINUOUS
 62
   18
 10
614.54620226680527
 20
238.34360430203105
 11
597.79909182208371
 21
221.59649385730944
  0
LINE
  8
_0-7_ハッチ
  6
CONTINUOUS
 62
   18
 10
617.79909182208371
 20
234.52542604544396
 11
599.20694095702447
 21
215.93327518038478
  0
LINE
  8
_0-7_ハッチ
  6
CONTINUOUS
 62
   18
 10
617.79909182208371
 20
227.45435823357849
 11
606.18833789053622
 21
215.84360430203105
  0
LINE
  8
_0-7_ハッチ
  6
CONTINUOUS
 62
   18
 10
600.40406664307432
 20
238.34360430203105
 11
597.79909182208371
 21
235.73862948104039
  0
LINE
  8
_0-3_雑工事
  6
PHANTOM1
 62
    7
 10
597.79909182208371
 20
236.84360430203094
 11
733.7990918220836
 21
236.84360430203094
  0
LINE
  8
_0-1_躯体
  6
CONTINUOUS
 62
    7
 10
1044.5923997133432
 20
550.86258848786667
 11
1057.0923997133432
 21
550.86258848786667
  0
LINE
  8
_0-1_躯体
  6
CONTINUOUS
 62
    7
 10
1057.0923997133432
 20
550.86258848786667
 11
1057.0923997133432
 21
659.83456179247355
  0
LINE
  8
_0-2_造作工事
  6
CONTINUOUS
 62
    7
 10
1057.0923997133434
 20
562.86258848786667
 11
1067.0923997133432
 21
562.86258848786667
  0
LINE
  8
_0-7_ハッチ
  6
CONTINUOUS
 62
   18
 10
1057.0923997133434
 20
556.3229023681846
 11
1067.0923997133432
 21
546.32290236818471
  0
LINE
  8
_0-7_ハッチ
  6
CONTINUOUS
 62
   18
 10
1064.6948492173924
 20
562.86258848786667
 11
1067.0923997133432
 21
560.46503799191566
  0
LINE
  8
_0-7_ハッチ
  6
CONTINUOUS
 62
   18
 10
1057.6237814055269
 20
562.86258848786667
 11
1067.0923997133432
 21
553.39397018005013
  0
LINE
  8
_0-1_躯体
  6
CONTINUOUS
 62
    7
 10
1044.5923997133432
 20
550.86258848786667
 11
1055.4891793941802
 21
550.86258848786667
  0
LINE
  8
_0-1_躯体
  6
CONTINUOUS
 62
    7
 10
1055.4891793941802
 20
550.86258848786667
 11
1057.0923997133434
 21
550.86258848786667
  0
LINE
  8
_0-2_造作工事
  6
CONTINUOUS
 62
    7
 10
1065.0923997133432
 20
530.86258848786656
 11
1044.5923997133432
 21
530.86258848786656
  0
LINE
  8
_0-2_造作工事
  6
CONTINUOUS
 62
    7
 10
1067.0923997133432
 20
532.86258848786667
 11
1067.0923997133432
 21
562.86258848786667
  0
ARC
  8
_0-2_造作工事
  6
CONTINUOUS
 62
    7
 10
1065.0923997133432
 20
532.86258848786667
 40
2
 50
270
 51
0
  0
LINE
  8
_0-7_ハッチ
  6
CONTINUOUS
 62
   18
 10
1044.5923997133432
 20
540.53863112072281
 11
1054.2684423461992
 21
530.86258848786656
  0
LINE
  8
_0-7_ハッチ
  6
CONTINUOUS
 62
   18
 10
1044.5923997133432
 20
547.60969893258823
 11
1061.339510158065
 21
530.86258848786656
  0
LINE
  8
_0-7_ハッチ
  6
CONTINUOUS
 62
   18
 10
1048.4105779699303
 20
550.86258848786667
 11
1067.0027288349897
 21
532.27043762280755
  0
LINE
  8
_0-7_ハッチ
  6
CONTINUOUS
 62
   18
 10
1055.4816457817958
 20
550.86258848786667
 11
1067.0923997133432
 21
539.25183455631918
  0
LINE
  8
_0-7_ハッチ
  6
CONTINUOUS
 62
   18
 10
1044.5923997133432
 20
533.46756330885728
 11
1047.1973745343339
 21
530.86258848786656
  0
LINE
  8
_0-3_雑工事
  6
PHANTOM1
 62
    7
 10
1046.0923997133432
 20
659.83456179247355
 11
1046.0923997133432
 21
530.86258848786656
  0
ENDSEC
  0
EOF
