  0
SECTION
  2
HEADER
  9
$ACADVER
  1
AC1009
  9
$INSBASE
 10
0
 20
0
 30
0
  9
$EXTMIN
 10
0
 20
0
  9
$EXTMAX
 10
1260
 20
891
  9
$LIMMIN
 10
0
 20
0
  9
$LIMMAX
 10
1260
 20
891
  9
$LTSCALE
 40
3
  0
ENDSEC
  0
SECTION
  2
TABLES
  0
TABLE
  2
LTYPE
 70
     9
  0
LTYPE
  2
CONTINUOUS
 70
    64
  3
実線
 72
    65
 73
     0
 40
0.0
  0
LTYPE
  2
DASHED1
 70
    64
  3
--  --  --  --  --  --  --  --  
 72
    65
 73
     2
 40
2.5
 49
1.25
 49
-1.25
  0
LTYPE
  2
DASHED2
 70
    64
  3
----    ----    ----    ----    
 72
    65
 73
     2
 40
5.0
 49
2.5
 49
-2.5
  0
LTYPE
  2
DASHED3
 70
    64
  3
------  ------  ------  ------  
 72
    65
 73
     2
 40
5.0
 49
3.75
 49
-1.25
  0
LTYPE
  2
CENTER1
 70
    64
  3
----- - ----- - ----- - ----- - 
 72
    65
 73
     4
 40
10.0
 49
6.25
 49
-1.25
 49
1.25
 49
-1.25
  0
LTYPE
  2
CENTER2
 70
    64
  3
----------  --  ----------  --  
 72
    65
 73
     4
 40
20.0
 49
12.5
 49
-2.5
 49
2.5
 49
-2.5
  0
LTYPE
  2
PHANTOM1
 70
    64
  3
--- - - --- - - --- - - --- - - 
 72
    65
 73
     6
 40
10.0
 49
3.25
 49
-1.25
 49
1.25
 49
-1.25
 49
1.25
 49
-1.25
  0
LTYPE
  2
PHANTOM2
 70
    64
  3
--------  -  -  --------  -  -  
 72
    65
 73
     6
 40
20.0
 49
10.0
 49
-2.5
 49
1.25
 49
-2.5
 49
1.25
 49
-2.5
  0
LTYPE
  2
DOT
 70
    64
  3
-   -   -   -   -   -   -   -   
 72
    65
 73
     2
 40
2.5
 49
0.625
 49
-1.875
  0
LTYPE
  2
DUMMY
 70
    64
  3
ダミー
 72
    65
 73
     0
 40
0.0
  0
LTYPE
  2
RAND1
 70
    64
  3
ランダム線1
 72
    65
 73
     4
 40
10.0
 49
1.0
 49
-2.0
 49
3.0
 49
-4.0
  0
LTYPE
  2
RAND2
 70
    64
  3
ランダム線2
 72
    65
 73
     4
 40
14.0
 49
2.0
 49
-3.0
 49
4.0
 49
-5.0
  0
LTYPE
  2
RAND3
 70
    64
  3
ランダム線3
 72
    65
 73
     4
 40
18.0
 49
3.0
 49
-4.0
 49
5.0
 49
-6.0
  0
LTYPE
  2
RAND4
 70
    64
  3
ランダム線4
 72
    65
 73
     4
 40
22.0
 49
4.0
 49
-5.0
 49
6.0
 49
-7.0
  0
LTYPE
  2
RAND5
 70
    64
  3
ランダム線5
 72
    65
 73
     4
 40
26.0
 49
5.0
 49
-6.0
 49
7.0
 49
-8.0
  0
LTYPE
  2
LONG1
 70
    64
  3
----------  --  ----------  --  
 72
    65
 73
     4
 40
40.0
 49
32.5
 49
-2.5
 49
2.5
 49
-2.5
  0
LTYPE
  2
LONG2
 70
    64
  3
--------  -  -  --------  -  -  
 72
    65
 73
     6
 40
40.0
 49
30.0
 49
-2.5
 49
1.25
 49
-2.5
 49
1.25
 49
-2.5
  0
LTYPE
  2
LONG3
 70
    64
  3
+++++++++++++++..+++++++++++++++
 72
    65
 73
     2
 40
40.0
 49
37.5
 49
-2.5
  0
LTYPE
  2
LONG4
 70
    64
  3
+++++++++++++++..+++++++++++++++
 72
    65
 73
     2
 40
80.0
 49
75.0
 49
-5.0
  0
LTYPE
  2
LONG5
 70
    64
  3
----------  --  ----------  --  
 72
    65
 73
     4
 40
60.0
 49
37.5
 49
-7.5
 49
7.5
 49
-7.5
  0
LTYPE
  2
dashed
 70
   64
  3
-------   -------------   ------
 72
   65
 73
    2
 40
7.5
 49
6
 49
-1.5
  0
LTYPE
  2
dashed_spaced
 70
   64
  3
----        --------        ----
 72
   65
 73
    2
 40
12
 49
6
 49
-6
  0
LTYPE
  2
long_dashed_dotted
 70
   64
  3
------------- --- --------------
 72
   65
 73
    4
 40
15.25
 49
12
 49
-1.5
 49
0.25
 49
-1.5
  0
LTYPE
  2
long_dashed_double-dotted
 70
   64
  3
----------- --- --- ------------
 72
   65
 73
    6
 40
17
 49
12
 49
-1.5
 49
0.25
 49
-1.5
 49
0.25
 49
-1.5
  0
LTYPE
  2
long_dashed_triplicate-dotted
 70
   64
  3
--------- --- --- --- ----------
 72
   65
 73
    8
 40
18.75
 49
12
 49
-1.5
 49
0.25
 49
-1.5
 49
0.25
 49
-1.5
 49
0.25
 49
-1.5
  0
LTYPE
  2
dotted
 70
   64
  3
   -       -       -       -    
 72
   65
 73
    2
 40
1.75
 49
0.25
 49
-1.5
  0
LTYPE
  2
chain
 70
   64
  3
-------------- -- --------------
 72
   65
 73
    4
 40
18.5
 49
12
 49
-1.5
 49
3.5
 49
-1.5
  0
LTYPE
  2
chain_double_dash
 70
   64
  3
------------ -- -- -------------
 72
   65
 73
    6
 40
23.5
 49
12
 49
-1.5
 49
3.5
 49
-1.5
 49
3.5
 49
-1.5
  0
LTYPE
  2
dashed_dotted
 70
   64
  3
-----------     -     ----------
 72
   65
 73
    4
 40
9.25
 49
6
 49
-1.5
 49
0.25
 49
-1.5
  0
LTYPE
  2
double-dashed_dotted
 70
   64
  3
------   -----------   -   -----
 72
   65
 73
    6
 40
16.75
 49
6
 49
-1.5
 49
6
 49
-1.5
 49
0.25
 49
-1.5
  0
LTYPE
  2
dashed_double-dotted
 70
   64
  3
---------    -    -    ---------
 72
   65
 73
    6
 40
11
 49
6
 49
-1.5
 49
0.25
 49
-1.5
 49
0.25
 49
-1.5
  0
LTYPE
  2
double-dashed_double-dotted
 70
   64
  3
-----   ---------   -   -   ----
 72
   65
 73
    8
 40
18.5
 49
6
 49
-1.5
 49
6
 49
-1.5
 49
0.25
 49
-1.5
 49
0.25
 49
-1.5
  0
LTYPE
  2
dashed_triplicate-dotted
 70
   64
  3
-------    -    -    -    ------
 72
   65
 73
    8
 40
12.75
 49
6
 49
-1.5
 49
0.25
 49
-1.5
 49
0.25
 49
-1.5
 49
0.25
 49
-1.5
  0
LTYPE
  2
double-dashed_triplicate-dotted
 70
   64
  3
-----  ---------  -  -  -  -----
 72
   65
 73
   10
 40
20.25
 49
6
 49
-1.5
 49
6
 49
-1.5
 49
0.25
 49
-1.5
 49
0.25
 49
-1.5
 49
0.25
 49
-1.5
  0
LTYPE
  2
undefined
 70
   64
  3
--------------------------------
 72
   65
 73
    0
 40
0
  0
LTYPE
  2
STYLE_01
 70
   64
  3
----        --------        ----
 72
   65
 73
    2
 40
0.4166412353515625
 49
0.208282470703125
 49
-0.2083587646484375
  0
LTYPE
  2
STYLE_02
 70
   64
  3
------     -----------     -----
 72
   65
 73
    2
 40
0.694427490234375
 49
0.4860687255859375
 49
-0.2083587646484375
  0
LTYPE
  2
STYLE_03
 70
   64
  3
-------   -------------   ------
 72
   65
 73
    2
 40
1.2499999999999996
 49
1.0416412353515621
 49
-0.2083587646484375
  0
LTYPE
  2
STYLE_04
 70
   64
  3
-------  --------------  -------
 72
   65
 73
    2
 40
1.5277099609375
 49
1.319427490234375
 49
-0.208282470703125
  0
LTYPE
  2
STYLE_05
 70
   64
  3
---           -----           --
 72
   65
 73
    2
 40
0.208282470703125
 49
0.069427490234375
 49
-0.13885498046875
  0
LTYPE
  2
STYLE_06
 70
   64
  3
----------      --    ----------
 72
   65
 73
    4
 40
1.0416412353515625
 49
0.625
 49
-0.208282470703125
 49
0.069427490234375
 49
-0.1389312744140625
  0
LTYPE
  2
STYLE_07
 70
   64
  3
-----    -----------    -  -----
 72
   65
 73
    6
 40
1.875
 49
0.625
 49
-0.208282470703125
 49
0.625
 49
-0.2083587646484375
 49
0.069427490234375
 49
-0.1389312744140625
  0
LTYPE
  2
STYLE_08
 70
   64
  3
--------     --    --    -------
 72
   65
 73
    6
 40
1.25
 49
0.625
 49
-0.208282470703125
 49
0.069427490234375
 49
-0.1389312744140625
 49
0.069427490234375
 49
-0.1389312744140625
  0
LTYPE
  2
STYLE_09
 70
   64
  3
------------  ----  ------------
 72
   65
 73
    4
 40
5
 49
3.75
 49
-0.2777862548828125
 49
0.694427490234375
 49
-0.2777862548828125
  0
LTYPE
  2
STYLE_10
 70
   64
  3
----------- ---- ---  ----------
 72
   65
 73
    6
 40
5.9375
 49
3.75
 49
-0.2777862548828125
 49
0.694427490234375
 49
-0.2777862548828125
 49
0.625
 49
-0.3125
  0
ENDTAB
  0
TABLE
  2
STYLE
  5
3
100
AcDbSymbolTable
 70
     1
  0
STYLE
  5
10
100
AcDbSymbolTableRecord
100
AcDbTextStyleTableRecord
  2
STANDARD
 70
     0
 40
0.0
 41
1.0
 50
0.0
 71
     0
 42
0.2
  3
txt
  4
bigfont.shx
  0
STYLE
  5
26
100
AcDbSymbolTableRecord
100
AcDbTextStyleTableRecord
  2
TATEGAKI
 70
    68
 40
0.0
 41
1.0
 50
0.0
 71
     0
 42
1.0
  3
txt
  4
bigfont.shx
  0
ENDTAB
  0
TABLE
  2
LAYER
 70
   18
  0
LAYER
  2
_0-0_本体
 70
   64
 62
    7
  6
CONTINUOUS
  0
LAYER
  2
_0-1_躯体
 70
   64
 62
    7
  6
CONTINUOUS
  0
LAYER
  2
_0-2_造作工事
 70
   64
 62
    7
  6
CONTINUOUS
  0
LAYER
  2
_0-3_雑工事
 70
   64
 62
    7
  6
CONTINUOUS
  0
LAYER
  2
_0-7_ハッチ
 70
   64
 62
    7
  6
CONTINUOUS
  0
LAYER
  2
_0-d_寸法
 70
   64
 62
    7
  6
CONTINUOUS
  0
LAYER
  2
_0-e_文字
 70
   64
 62
    7
  6
CONTINUOUS
  0
LAYER
  2
_0-f_
 70
   64
 62
    7
  6
CONTINUOUS
  0
LAYER
  2
_1-0_
 70
   64
 62
    7
  6
CONTINUOUS
  0
LAYER
  2
_1-1_
 70
   64
 62
    7
  6
CONTINUOUS
  0
LAYER
  2
_1-d_
 70
   64
 62
    7
  6
CONTINUOUS
  0
LAYER
  2
_1-e_
 70
   64
 62
    7
  6
CONTINUOUS
  0
LAYER
  2
_2-0_
 70
   64
 62
    7
  6
CONTINUOUS
  0
LAYER
  2
_2-7_
 70
   64
 62
    7
  6
CONTINUOUS
  0
LAYER
  2
_2-d_
 70
   64
 62
    7
  6
CONTINUOUS
  0
LAYER
  2
_2-e_
 70
   64
 62
    7
  6
CONTINUOUS
  0
LAYER
  2
_f-0_
 70
   64
 62
    7
  6
CONTINUOUS
  0
LAYER
  2
ADD_LINE
 70
   64
 62
    7
  6
CONTINUOUS
  0
ENDTAB
  0
ENDSEC
  0
SECTION
  2
BLOCKS
  0
BLOCK
  2
-000-_DOTSMALL
 70
   64
 10
0
 20
0
 30
0
  0
CIRCLE
  8
_0-0_本体
  6
CONTINUOUS
 62
    7
 10
0
 20
0
 40
0.1875
  0
LINE
  8
_0-0_本体
  6
CONTINUOUS
 62
    7
 10
0.1875
 20
0
 11
-0.1875
 21
0
  0
ENDBLK
  0
ENDSEC
  0
SECTION
  2
ENTITIES
  0
LINE
  8
ADD_LINE
  6
DOT
 62
    9
 10
290.03717605651661
 20
551.84170516598897
 11
241.09816971713809
 21
551.84170516598897
  0
LINE
  8
_f-0_
  6
CONTINUOUS
 62
   18
 10
85.500000000000256
 20
45.000000000000085
 11
85.500000000000256
 21
845.99998886520814
  0
LINE
  8
_f-0_
  6
CONTINUOUS
 62
   18
 10
85.500000000000256
 20
845.99998886520814
 11
1174.5000250532826
 21
845.99998886520814
  0
LINE
  8
_f-0_
  6
CONTINUOUS
 62
   18
 10
1174.5000250532826
 20
45.000000000000085
 11
85.500000000000256
 21
45.000000000000085
  0
LINE
  8
_f-0_
  6
CONTINUOUS
 62
   18
 10
85.500000000000256
 20
105.00000309299786
 11
1174.5000250532826
 21
105.00000309299786
  0
LINE
  8
_f-0_
  6
CONTINUOUS
 62
   18
 10
1174.5000250532826
 20
845.99998886520814
 11
1174.5000250532826
 21
45.000000000000085
  0
LINE
  8
_f-0_
  6
CONTINUOUS
 62
    7
 10
763.50000525809651
 20
105.00000309299786
 11
763.50000525809651
 21
45.000000000000085
  0
LINE
  8
_f-0_
  6
CONTINUOUS
 62
    7
 10
1015.5000201044859
 20
105.00000309299786
 11
1015.5000201044859
 21
45.000000000000085
  0
LINE
  8
_f-0_
  6
CONTINUOUS
 62
    7
 10
1104.0000151556892
 20
105.00000309299786
 11
1104.0000151556892
 21
45.000000000000085
  0
LINE
  8
_f-0_
  6
CONTINUOUS
 62
    7
 10
589.4999879373089
 20
105.00000309299786
 11
589.4999879373089
 21
45.000000000000085
  0
LINE
  8
_f-0_
  6
DASHED1
 62
   18
 10
111.00000061859978
 20
70.799999752560282
 11
582.00000030930005
 21
70.799999752560282
  0
LINE
  8
_f-0_
  6
DASHED1
 62
   18
 10
607.50001020689297
 20
85.499994432604112
 11
754.49997556531775
 21
85.499994432604112
  0
LINE
  8
_f-0_
  6
DASHED1
 62
   18
 10
1006.4999904117071
 20
85.499994432604112
 11
776.99997556531775
 21
85.499994432604112
  0
LINE
  8
_f-0_
  6
DASHED1
 62
   18
 10
1093.979221962594
 20
85.774494892842156
 11
1025.2500151556892
 21
85.774494892842156
  0
LINE
  8
_f-0_
  6
DASHED1
 62
   18
 10
1114.020734116838
 20
85.774494892842156
 11
1162.4999854629104
 21
85.499994432604112
  0
TEXT
  8
_f-0_
 62
    7
 10
608.77498595779036
 20
86.974500707677976
 40
12
 41
1
 50
0
  1
項目
  0
TEXT
  8
_f-0_
 62
    7
 10
776.40000822737431
 20
86.974500707677976
 40
12
 41
1
 50
0
  1
図面名称
  0
TEXT
  8
_f-0_
 62
    7
 10
1115.8353736465046
 20
85.774494892842156
 40
12
 41
1
 50
0
  1
NO
  0
TEXT
  8
_f-0_
 62
    7
 10
814.50003000207869
 20
57.737246332941879
 40
12
 41
1
 50
0
  1
平断面・立断面
  0
LINE
  8
_f-0_
  6
CONTINUOUS
 62
    7
 10
135.30000006186017
 20
74.399998639081062
 11
173.99999969070049
 21
74.399998639081062
  0
LINE
  8
_f-0_
  6
CONTINUOUS
 62
    7
 10
138.30000068045979
 20
77.399999257680633
 11
170.99999907210096
 21
77.399999257680633
  0
LINE
  8
_f-0_
  6
CONTINUOUS
 62
    7
 10
135.30000006186017
 20
90.299999133960711
 11
135.30000006186017
 21
74.399998639081062
  0
LINE
  8
_f-0_
  6
CONTINUOUS
 62
    7
 10
138.30000068045979
 20
87.299998515361139
 11
138.30000068045979
 21
77.399999257680633
  0
LINE
  8
_f-0_
  6
CONTINUOUS
 62
    7
 10
173.99999969070049
 20
87.299998515361139
 11
138.30000068045979
 21
87.299998515361139
  0
LINE
  8
_f-0_
  6
CONTINUOUS
 62
    7
 10
173.99999969070049
 20
90.299999133960711
 11
135.30000006186017
 21
90.299999133960711
  0
LINE
  8
_f-0_
  6
CONTINUOUS
 62
    7
 10
149.39999647398275
 20
80.850003216717781
 11
149.39999647398275
 21
83.849994556323992
  0
LINE
  8
_f-0_
  6
CONTINUOUS
 62
    7
 10
149.39999647398275
 20
83.849994556323992
 11
173.99999969070049
 21
83.849994556323992
  0
LINE
  8
_f-0_
  6
CONTINUOUS
 62
    7
 10
149.39999647398275
 20
80.850003216717781
 11
170.99999907210096
 21
80.850003216717781
  0
LINE
  8
_f-0_
  6
CONTINUOUS
 62
    7
 10
170.99999907210096
 20
77.399999257680633
 11
170.99999907210096
 21
80.850003216717781
  0
LINE
  8
_f-0_
  6
CONTINUOUS
 62
    7
 10
173.99999969070049
 20
74.399998639081062
 11
173.99999969070049
 21
83.849994556323992
  0
LINE
  8
_f-0_
  6
CONTINUOUS
 62
    7
 10
173.99999969070049
 20
90.299999133960711
 11
173.99999969070049
 21
87.299998515361139
  0
LINE
  8
_f-0_
  6
CONTINUOUS
 62
    7
 10
137.87142916351695
 20
87.728570032303935
 11
173.99999969070049
 21
87.728570032303935
  0
LINE
  8
_f-0_
  6
CONTINUOUS
 62
    7
 10
137.44285764657411
 20
88.157141549246731
 11
173.99999969070049
 21
88.157141549246731
  0
LINE
  8
_f-0_
  6
CONTINUOUS
 62
    7
 10
137.01428612963127
 20
88.585713066189527
 11
173.99999969070049
 21
88.585713066189527
  0
LINE
  8
_f-0_
  6
CONTINUOUS
 62
    7
 10
136.58571461268843
 20
89.014284583132323
 11
173.99999969070049
 21
89.014284583132323
  0
LINE
  8
_f-0_
  6
CONTINUOUS
 62
    7
 10
136.1571430957456
 20
89.442856100075119
 11
173.99999969070049
 21
89.442856100075119
  0
LINE
  8
_f-0_
  6
CONTINUOUS
 62
    7
 10
135.72857157880276
 20
89.871427617017915
 11
173.99999969070049
 21
89.871427617017915
  0
LINE
  8
_f-0_
  6
CONTINUOUS
 62
    7
 10
135.72857157880301
 20
89.871427617017915
 11
135.72857157880301
 21
74.828570156023858
  0
LINE
  8
_f-0_
  6
CONTINUOUS
 62
    7
 10
136.15714309574585
 20
89.442856100075119
 11
136.15714309574585
 21
75.257141672966654
  0
LINE
  8
_f-0_
  6
CONTINUOUS
 62
    7
 10
136.58571461268869
 20
89.014284583132323
 11
136.58571461268869
 21
75.68571318990945
  0
LINE
  8
_f-0_
  6
CONTINUOUS
 62
    7
 10
137.01428612963153
 20
88.585713066189527
 11
137.01428612963153
 21
76.114284706852246
  0
LINE
  8
_f-0_
  6
CONTINUOUS
 62
    7
 10
137.44285764657437
 20
88.157141549246731
 11
137.44285764657437
 21
76.542856223795042
  0
LINE
  8
_f-0_
  6
CONTINUOUS
 62
    7
 10
137.87142916351721
 20
87.728570032303935
 11
137.87142916351721
 21
76.971427740737838
  0
LINE
  8
_f-0_
  6
CONTINUOUS
 62
    7
 10
137.87142916351695
 20
76.971427740737838
 11
171.42857058904372
 21
76.971427740737838
  0
LINE
  8
_f-0_
  6
CONTINUOUS
 62
    7
 10
137.44285764657411
 20
76.542856223795042
 11
171.85714210598647
 21
76.542856223795042
  0
LINE
  8
_f-0_
  6
CONTINUOUS
 62
    7
 10
137.01428612963127
 20
76.114284706852246
 11
172.28571362292922
 21
76.114284706852246
  0
LINE
  8
_f-0_
  6
CONTINUOUS
 62
    7
 10
136.58571461268843
 20
75.68571318990945
 11
172.71428513987198
 21
75.68571318990945
  0
LINE
  8
_f-0_
  6
CONTINUOUS
 62
    7
 10
136.1571430957456
 20
75.257141672966654
 11
173.14285665681473
 21
75.257141672966654
  0
LINE
  8
_f-0_
  6
CONTINUOUS
 62
    7
 10
135.72857157880276
 20
74.828570156023858
 11
173.57142817375748
 21
74.828570156023858
  0
LINE
  8
_f-0_
  6
CONTINUOUS
 62
    7
 10
171.42857058904372
 20
81.278573408090097
 11
149.39999647398275
 21
81.278573408090097
  0
LINE
  8
_f-0_
  6
CONTINUOUS
 62
    7
 10
171.85714210598647
 20
81.707143599462412
 11
149.39999647398275
 21
81.707143599462412
  0
LINE
  8
_f-0_
  6
CONTINUOUS
 62
    7
 10
172.28571362292922
 20
82.135713790834728
 11
149.39999647398275
 21
82.135713790834728
  0
LINE
  8
_f-0_
  6
CONTINUOUS
 62
    7
 10
172.71428513987198
 20
82.564283982207044
 11
149.39999647398275
 21
82.564283982207044
  0
LINE
  8
_f-0_
  6
CONTINUOUS
 62
    7
 10
173.14285665681473
 20
82.99285417357936
 11
149.39999647398275
 21
82.99285417357936
  0
LINE
  8
_f-0_
  6
CONTINUOUS
 62
    7
 10
173.57142817375748
 20
83.421424364951676
 11
149.39999647398275
 21
83.421424364951676
  0
LINE
  8
_f-0_
  6
CONTINUOUS
 62
    7
 10
171.42857058904372
 20
76.971427740737838
 11
171.42857058904372
 21
81.278573408090097
  0
LINE
  8
_f-0_
  6
CONTINUOUS
 62
    7
 10
171.85714210598647
 20
76.542856223795042
 11
171.85714210598647
 21
81.707143599462412
  0
LINE
  8
_f-0_
  6
CONTINUOUS
 62
    7
 10
172.28571362292922
 20
76.114284706852246
 11
172.28571362292922
 21
82.135713790834728
  0
LINE
  8
_f-0_
  6
CONTINUOUS
 62
    7
 10
172.71428513987198
 20
75.68571318990945
 11
172.71428513987198
 21
82.564283982207044
  0
LINE
  8
_f-0_
  6
CONTINUOUS
 62
    7
 10
173.14285665681473
 20
75.257141672966654
 11
173.14285665681473
 21
82.99285417357936
  0
LINE
  8
_f-0_
  6
CONTINUOUS
 62
    7
 10
173.57142817375748
 20
74.828570156023858
 11
173.57142817375748
 21
83.421424364951676
  0
TEXT
  8
_f-0_
 62
    7
 10
1025.3259252891035
 20
87.124495635161608
 40
12
 41
1
 50
0
  1
スケール
  0
TEXT
  8
_f-0_
 62
    2
 10
217.11338857702339
 20
66.541647008947507
 40
24
 41
1
 50
0
  1
GADELIUS  K.K
  0
TEXT
  8
_f-0_
 62
    2
 10
419.30552517850168
 20
65.641649607065716
 40
24
 41
1
 50
0
  1
SWEDEN DOOR
  0
TEXT
  8
_f-0_
 62
    7
 10
600.63447004362195
 20
65.666151256502616
 40
12
 41
1
 50
0
  1
玄関ドア参考納図（在来）
  0
TEXT
  8
_f-0_
 62
    7
 10
636.89637314127037
 20
52.145258457202459
 40
12
 41
1
 50
0
  1
（Ｈ＝2,180）
  0
LINE
  8
_1-e_
  6
CONTINUOUS
 62
   18
 10
266.53759955449777
 20
553.09170516598874
 11
280.93982417696731
 21
553.09170516598874
  0
LINE
  8
_1-0_
  6
CONTINUOUS
 62
    7
 10
238.20331483403476
 20
551.84170516598897
 11
337.00331483403477
 21
551.84170516598897
  0
LINE
  8
_1-0_
  6
CONTINUOUS
 62
    7
 10
333.85331483403405
 20
553.09170516598829
 11
241.35331483403419
 21
553.09170516598874
  0
INSERT
  2
-000-_DOTSMALL
  8
_1-e_
 10
284.88437127969212
 20
553.09170516598874
 41
0.6666666666666666
 42
0.6666666666666666
 50
270
  0
INSERT
  2
-000-_DOTSMALL
  8
_1-e_
 10
272.67867386641717
 20
553.09170516598874
 41
-0.6666666666666666
 42
0.6666666666666666
 50
-270
  0
POINT
  8
_1-e_
 62
   18
 10
272.67867386641717
 20
553.09170516598874
  0
INSERT
  2
-000-_DOTSMALL
  8
_1-e_
 10
272.67867386641717
 20
553.09170516598874
 41
0.6666666666666666
 42
0.6666666666666666
 50
270
  0
INSERT
  2
-000-_DOTSMALL
  8
_1-e_
 10
284.88437127969212
 20
553.09170516598874
 41
-0.6666666666666666
 42
0.6666666666666666
 50
-270
  0
LINE
  8
_1-e_
  6
CONTINUOUS
 62
    7
 10
254.85331483403488
 20
501.37824107634111
 11
320.35331483403479
 21
501.37824107634111
  0
LINE
  8
_1-e_
  6
CONTINUOUS
 62
    7
 10
320.35331483403479
 20
501.37824107634111
 11
320.35331483403479
 21
485.71222313004989
  0
LINE
  8
_1-e_
  6
CONTINUOUS
 62
    7
 10
320.35331483403479
 20
485.71222313004989
 11
254.85331483403488
 21
485.71222313004989
  0
LINE
  8
_1-e_
  6
CONTINUOUS
 62
    7
 10
254.85331483403488
 20
485.71222313004989
 11
254.85331483403488
 21
501.37824107634111
  0
LINE
  8
_1-e_
  6
CONTINUOUS
 62
   18
 10
238.20331483403476
 20
801.81430996121935
 11
238.20331483403476
 21
809.10581900791578
  0
INSERT
  2
-000-_DOTSMALL
  8
_1-e_
 10
238.20331483403476
 20
809.10581900791578
 41
0.6666666666666666
 42
0.6666666666666666
 50
180
  0
LINE
  8
_1-e_
  6
CONTINUOUS
 62
   18
 10
270.60813671045793
 20
766.69170516598831
 11
280.93982417696731
 21
766.69170516598831
  0
INSERT
  2
-000-_DOTSMALL
  8
_1-e_
 10
272.67867386641717
 20
766.69170516598831
 41
0.6666666666666666
 42
0.6666666666666666
 50
90
  0
POINT
  8
_1-e_
 62
   18
 10
272.67867386641717
 20
766.69170516598831
  0
LINE
  8
_1-0_
  6
CONTINUOUS
 62
    7
 10
238.20331483403476
 20
769.84170516598874
 11
337.00331483403477
 21
769.84170516598874
  0
LINE
  8
_1-0_
  6
CONTINUOUS
 62
    7
 10
333.85331483403473
 20
766.69170516598808
 11
241.35331483403513
 21
766.69170516598842
  0
INSERT
  2
-000-_DOTSMALL
  8
_1-e_
 10
284.88437127969212
 20
766.69170516598831
 41
0.6666666666666666
 42
0.6666666666666666
 50
90
  0
POINT
  8
_1-e_
 62
   18
 10
284.88437127969212
 20
766.69170516598831
  0
LINE
  8
_1-0_
  6
CONTINUOUS
 62
    7
 10
337.00331483403477
 20
796.13584049302199
 11
337.00331483403477
 21
785.63584049302199
  0
LINE
  8
_1-0_
  6
CONTINUOUS
 62
    7
 10
332.60331483403479
 20
791.43584049302183
 11
332.60331483403479
 21
785.63584049302199
  0
LINE
  8
_1-0_
  6
CONTINUOUS
 62
    7
 10
242.60331483403459
 20
791.43584049302217
 11
332.60331483403479
 21
791.43584049302183
  0
LINE
  8
_1-0_
  6
CONTINUOUS
 62
    7
 10
238.20331483403476
 20
796.13584049302199
 11
337.00331483403477
 21
796.13584049302199
  0
LINE
  8
_1-0_
  6
CONTINUOUS
 62
    7
 10
242.60331483403459
 20
791.43584049302217
 11
242.60331483403476
 21
785.63584049302199
  0
LINE
  8
_1-0_
  6
CONTINUOUS
 62
    7
 10
238.20331483403476
 20
785.63584049302199
 11
337.00331483403477
 21
785.63584049302176
  0
LINE
  8
_1-0_
  6
CONTINUOUS
 62
    7
 10
238.20331483403476
 20
796.13584049302199
 11
238.20331483403476
 21
785.63584049302199
  0
LINE
  8
_1-0_
  6
CONTINUOUS
 62
    7
 10
238.20331483403476
 20
769.84170516598874
 11
238.20331483403476
 21
551.84170516598897
  0
LINE
  8
_1-0_
  6
CONTINUOUS
 62
    7
 10
337.00331483403477
 20
769.84170516598874
 11
337.00331483403477
 21
551.84170516598897
  0
LINE
  8
_1-e_
  6
CONTINUOUS
 62
   18
 10
284.88437127969212
 20
553.09170516598874
 11
284.88437127969212
 21
766.6917051659882
  0
LINE
  8
_1-e_
  6
CONTINUOUS
 62
   18
 10
272.67867386641717
 20
625.59170516598851
 11
272.67867386641717
 21
766.69170516598831
  0
LINE
  8
_1-0_
  6
CONTINUOUS
 62
    7
 10
241.35331483403479
 20
553.09170516598874
 11
241.35331483403513
 21
766.69170516598842
  0
LINE
  8
_1-1_
  6
CONTINUOUS
 62
   18
 10
335.32831483403493
 20
744.04170516598811
 11
335.32831483403493
 21
730.04170516598811
  0
LINE
  8
_1-1_
  6
CONTINUOUS
 62
   18
 10
332.62831483403488
 20
744.04170516598811
 11
332.62831483403488
 21
730.04170516598811
  0
LINE
  8
_1-1_
  6
CONTINUOUS
 62
   18
 10
332.62831483403488
 20
730.04170516598811
 11
335.32831483403476
 21
730.04170516598811
  0
LINE
  8
_1-1_
  6
CONTINUOUS
 62
   18
 10
332.62831483403488
 20
736.84170516598817
 11
335.32831483403493
 21
736.84170516598817
  0
LINE
  8
_1-1_
  6
CONTINUOUS
 62
   18
 10
332.62831483403488
 20
737.24170516598815
 11
335.32831483403493
 21
737.24170516598815
  0
LINE
  8
_1-1_
  6
CONTINUOUS
 62
   18
 10
332.62831483403488
 20
744.04170516598811
 11
335.32831483403476
 21
744.04170516598811
  0
LINE
  8
_1-0_
  6
CONTINUOUS
 62
    7
 10
333.8533148340349
 20
744.04170516598811
 11
333.85331483403456
 21
766.69170516598808
  0
LINE
  8
_1-1_
  6
CONTINUOUS
 62
   18
 10
335.32831483403493
 20
590.04170516598811
 11
335.32831483403493
 21
576.04170516598811
  0
LINE
  8
_1-1_
  6
CONTINUOUS
 62
   18
 10
332.62831483403488
 20
590.04170516598811
 11
332.62831483403488
 21
576.04170516598811
  0
LINE
  8
_1-1_
  6
CONTINUOUS
 62
   18
 10
332.62831483403488
 20
576.04170516598811
 11
335.32831483403476
 21
576.04170516598811
  0
LINE
  8
_1-1_
  6
CONTINUOUS
 62
   18
 10
332.62831483403488
 20
582.84170516598817
 11
335.32831483403493
 21
582.84170516598817
  0
LINE
  8
_1-1_
  6
CONTINUOUS
 62
   18
 10
332.62831483403488
 20
583.24170516598815
 11
335.32831483403493
 21
583.24170516598815
  0
LINE
  8
_1-1_
  6
CONTINUOUS
 62
   18
 10
332.62831483403488
 20
590.04170516598811
 11
335.32831483403476
 21
590.04170516598811
  0
LINE
  8
_1-0_
  6
CONTINUOUS
 62
    7
 10
333.85331483403502
 20
590.04170516598811
 11
333.85331483403365
 21
730.04170516598811
  0
LINE
  8
_1-0_
  6
CONTINUOUS
 62
    7
 10
333.85331483403507
 20
553.09170516598829
 11
333.85331483403468
 21
576.04170516598811
  0
TEXT
  8
_1-e_
 62
    4
 10
284.12397084374584
 20
643.09990166629052
 40
7.5
 41
1
 50
90
  1
2,136
  0
LINE
  8
_1-e_
  6
CONTINUOUS
 62
   18
 10
250.94025481933562
 20
665.5917051659884
 11
272.67867386641717
 21
665.5917051659884
  0
LINE
  8
_1-e_
  6
CONTINUOUS
 62
   18
 10
252.94025481933568
 20
654.49170516598849
 11
266.57026769430797
 21
654.49170516598849
  0
INSERT
  2
-000-_DOTSMALL
  8
_1-e_
 10
266.57026769430797
 20
654.49170516598849
 41
0.6666666666666666
 42
0.6666666666666666
 50
270
  0
INSERT
  2
-000-_DOTSMALL
  8
_1-e_
 10
266.57026769430797
 20
665.5917051659884
 41
0.6666666666666666
 42
0.6666666666666666
 50
90
  0
POINT
  8
_1-e_
 62
   18
 10
266.57026769430797
 20
665.5917051659884
  0
LINE
  8
_1-e_
  6
CONTINUOUS
 62
   18
 10
264.537599554498
 20
625.59170516598851
 11
272.67867386641717
 21
625.59170516598851
  0
INSERT
  2
-000-_DOTSMALL
  8
_1-e_
 10
272.67867386641717
 20
665.5917051659884
 41
0.6666666666666666
 42
0.6666666666666666
 50
90
  0
INSERT
  2
-000-_DOTSMALL
  8
_1-e_
 10
272.67867386641717
 20
625.59170516598851
 41
0.6666666666666666
 42
0.6666666666666666
 50
270
  0
POINT
  8
_1-e_
 62
   18
 10
272.67867386641717
 20
625.59170516598851
  0
INSERT
  2
-000-_DOTSMALL
  8
_1-e_
 10
272.67867386641717
 20
625.59170516598851
 41
0.6666666666666666
 42
0.6666666666666666
 50
90
  0
INSERT
  2
-000-_DOTSMALL
  8
_1-e_
 10
272.67867386641717
 20
665.5917051659884
 41
0.6666666666666666
 42
0.6666666666666666
 50
270
  0
TEXT
  8
_1-e_
 62
    4
 10
266.44302597555748
 20
655.45687463034039
 40
6
 41
1
 50
90
  1
111
  0
CIRCLE
  8
_1-1_
  6
CONTINUOUS
 62
   18
 10
246.49031483403377
 20
625.60885358923508
 40
2.4500000000000011
  0
CIRCLE
  8
_1-1_
  6
CONTINUOUS
 62
   18
 10
246.49031483403377
 20
625.5338535892331
 40
1.9500000000000002
  0
ARC
  8
_1-1_
  6
CONTINUOUS
 62
   18
 10
246.49031483403377
 20
626.28385358923583
 40
1
 50
0
 51
180
  0
LINE
  8
_1-1_
  6
CONTINUOUS
 62
   18
 10
246.39031483403377
 20
624.24302089791763
 11
246.39031483403377
 21
625.60277055694473
  0
LINE
  8
_1-1_
  6
CONTINUOUS
 62
   18
 10
246.59031483403376
 20
624.24302089791763
 11
246.59031483403376
 21
625.60277055694473
  0
CIRCLE
  8
_1-1_
  6
CONTINUOUS
 62
   18
 10
246.49031483403377
 20
624.78385358923504
 40
0.825
  0
ARC
  8
_1-1_
  6
CONTINUOUS
 62
   18
 10
246.49031483403377
 20
624.78385358923504
 40
1
 50
180
 51
0
  0
ARC
  8
_1-1_
  6
CONTINUOUS
 62
   18
 10
246.49031483403377
 20
624.78385358923504
 40
0.5499999999999999
 50
100.47568169648632
 51
79.524318303513724
  0
LINE
  8
_1-1_
  6
CONTINUOUS
 62
   18
 10
247.49031483403226
 20
626.28385358923583
 11
247.49031483403226
 21
624.78385358923504
  0
LINE
  8
_1-1_
  6
CONTINUOUS
 62
   18
 10
245.49031483403434
 20
626.28385358923583
 11
245.49031483403434
 21
624.78385358923504
  0
CIRCLE
  8
_1-1_
  6
CONTINUOUS
 62
   18
 10
246.49031483403377
 20
665.6088535892352
 40
2.4500000000000011
  0
ARC
  8
_1-1_
  6
CONTINUOUS
 62
   18
 10
246.49031483403377
 20
654.5088535892362
 40
2.4500000000000011
 50
14.175803515917231
 51
345.82419648408279
  0
ARC
  8
_1-1_
  6
CONTINUOUS
 62
   18
 10
246.49031483403377
 20
654.5088535892362
 40
1.9500000000000002
 50
17.92021313934254
 51
342.07978686065746
  0
ARC
  8
_1-1_
  6
CONTINUOUS
 62
   18
 10
255.69031483403452
 20
654.20885358923874
 40
0.3
 50
270
 51
0
  0
ARC
  8
_1-1_
  6
CONTINUOUS
 62
   18
 10
255.69031483403452
 20
654.80885358923842
 40
0.3
 50
0
 51
90
  0
LINE
  8
_1-1_
  6
CONTINUOUS
 62
   18
 10
255.99031483403374
 20
654.80885358923842
 11
255.99031483403374
 21
654.20885358923874
  0
LINE
  8
_1-1_
  6
CONTINUOUS
 62
   18
 10
245.49031483403434
 20
654.80885358923842
 11
245.49031483403434
 21
654.20885358923874
  0
ARC
  8
_1-1_
  6
CONTINUOUS
 62
   18
 10
245.79031483403449
 20
654.80885358923842
 40
0.3
 50
90
 51
180
  0
ARC
  8
_1-1_
  6
CONTINUOUS
 62
   18
 10
245.79031483403449
 20
654.20885358923874
 40
0.3
 50
180
 51
270
  0
LINE
  8
_1-1_
  6
CONTINUOUS
 62
   18
 10
245.79031483403449
 20
655.10885358923576
 11
255.69031483403452
 21
655.10885358923576
  0
LINE
  8
_1-1_
  6
CONTINUOUS
 62
   18
 10
245.79031483403449
 20
653.90885358923697
 11
255.69031483403452
 21
653.90885358923697
  0
CIRCLE
  8
_1-1_
  6
CONTINUOUS
 62
   18
 10
246.49031483403377
 20
665.53385358923322
 40
1.9500000000000002
  0
LINE
  8
_1-1_
  6
CONTINUOUS
 62
   18
 10
247.49031483403226
 20
666.28385358923595
 11
247.49031483403226
 21
664.78385358923515
  0
LINE
  8
_1-1_
  6
CONTINUOUS
 62
   18
 10
246.59031483403376
 20
664.24302089791763
 11
246.59031483403376
 21
665.60277055694473
  0
LINE
  8
_1-1_
  6
CONTINUOUS
 62
   18
 10
246.39031483403377
 20
664.24302089791763
 11
246.39031483403377
 21
665.60277055694473
  0
LINE
  8
_1-1_
  6
CONTINUOUS
 62
   18
 10
245.49031483403434
 20
666.28385358923595
 11
245.49031483403434
 21
664.78385358923515
  0
ARC
  8
_1-1_
  6
CONTINUOUS
 62
   18
 10
246.49031483403377
 20
664.78385358923515
 40
0.5499999999999999
 50
100.47568169648632
 51
79.524318303513724
  0
ARC
  8
_1-1_
  6
CONTINUOUS
 62
   18
 10
246.49031483403377
 20
664.78385358923515
 40
1
 50
180
 51
0
  0
CIRCLE
  8
_1-1_
  6
CONTINUOUS
 62
   18
 10
246.49031483403377
 20
664.78385358923515
 40
0.825
  0
ARC
  8
_1-1_
  6
CONTINUOUS
 62
   18
 10
246.49031483403377
 20
666.28385358923595
 40
1
 50
0
 51
180
  0
TEXT
  8
_1-e_
 62
    4
 10
272.34367529713461
 20
638.53000866422224
 40
7.5
 41
1
 50
90
  1
400
  0
LINE
  8
_1-e_
  6
CONTINUOUS
 62
   18
 10
266.57026769430797
 20
654.49170516598849
 11
266.57026769430797
 21
665.5917051659884
  0
INSERT
  2
-000-_DOTSMALL
  8
_1-e_
 10
266.57026769430797
 20
654.49170516598849
 41
-0.6666666666666666
 42
0.6666666666666666
 50
-270
  0
INSERT
  2
-000-_DOTSMALL
  8
_1-e_
 10
266.57026769430797
 20
665.5917051659884
 41
-0.6666666666666666
 42
0.6666666666666666
 50
-90
  0
LINE
  8
_1-e_
  6
CONTINUOUS
 62
   18
 10
272.67867386641717
 20
625.59170516598851
 11
272.67867386641717
 21
553.09170516598874
  0
TEXT
  8
_1-e_
 62
    4
 10
272.14739122891183
 20
583.60788430489072
 40
7.5
 41
1
 50
90
  1
725
  0
TEXT
  8
_1-e_
 62
    4
 10
257.60331483403485
 20
489.79523210319553
 40
7.5
 41
1
 50
0
  1
玄関ドアH＝2,180
  0
LINE
  8
_1-e_
  6
CONTINUOUS
 62
    7
 10
183.77864836732812
 20
552.34366508838764
 11
188.5241859269949
 21
552.85479799889799
  0
LINE
  8
_1-e_
  6
CONTINUOUS
 62
    7
 10
183.7818312262566
 20
552.19132895812436
 11
184.68438542002832
 21
552.14516271584205
  0
ARC
  8
_1-e_
  6
CONTINUOUS
 62
    7
 10
183.7818312262566
 20
552.29376649713458
 40
0.05
 50
92.862405226125205
 51
180
  0
ARC
  8
_1-e_
  6
CONTINUOUS
 62
    7
 10
183.7818312262566
 20
552.24132895812318
 40
0.05
 50
180.0000000000249
 51
270
  0
LINE
  8
_1-e_
  6
CONTINUOUS
 62
    7
 10
183.77933434543183
 20
551.99408032194913
 11
184.6843820038298
 21
552.04031202719307
  0
ARC
  8
_1-e_
  6
CONTINUOUS
 62
    7
 10
183.7818312262566
 20
551.94414270499919
 40
0.05
 50
92.862405226125205
 51
180
  0
ARC
  8
_1-e_
  6
CONTINUOUS
 62
    7
 10
183.7818312262566
 20
551.89170516598779
 40
0.05
 50
180.0000000000249
 51
270
  0
ARC
  8
_1-e_
  6
CONTINUOUS
 62
    7
 10
184.678786788595
 20
552.09040264514135
 40
0.05
 50
272.92424513677634
 51
0.0000000000000254
  0
ARC
  8
_1-e_
  6
CONTINUOUS
 62
    7
 10
184.678786788595
 20
552.09538372251154
 40
0.05
 50
0.000000000000007
 51
87.071835050268859
  0
LINE
  8
_1-e_
  6
CONTINUOUS
 62
    7
 10
184.72878678860519
 20
552.09538372251154
 11
184.72878678860519
 21
552.09040264514135
  0
LINE
  8
_1-e_
  6
CONTINUOUS
 62
    7
 10
183.73183122625665
 20
552.29376649713458
 11
183.73183122625665
 21
552.24132895812318
  0
LINE
  8
_1-e_
  6
CONTINUOUS
 62
    7
 10
183.73183122625665
 20
551.94414270499919
 11
183.73183122625665
 21
551.89170516598779
  0
LINE
  8
_1-e_
  6
CONTINUOUS
 62
    7
 10
188.5241859269949
 20
552.85479799889799
 11
188.5241859269949
 21
553.14170516598097
  0
LINE
  8
_1-e_
  6
CONTINUOUS
 62
    7
 10
188.72418592699029
 20
552.9417051659857
 11
188.72418592699029
 21
553.34170516598761
  0
LINE
  8
_1-e_
  6
CONTINUOUS
 62
    7
 10
188.7341859270104
 20
552.95170516598318
 11
188.7341859270104
 21
553.34170516598761
  0
ARC
  8
_1-e_
  6
CONTINUOUS
 62
    7
 10
184.88183122625338
 20
551.89170516598779
 40
0.05
 50
270
 51
0
  0
LINE
  8
_1-e_
  6
CONTINUOUS
 62
    7
 10
184.93183122626357
 20
552.2542292159892
 11
184.93183122626357
 21
551.89170516598779
  0
LINE
  8
_1-e_
  6
CONTINUOUS
 62
    7
 10
188.554219114972
 20
552.58645730339367
 11
188.554219114972
 21
552.04170516598424
  0
ARC
  8
_1-e_
  6
CONTINUOUS
 62
    7
 10
188.50421911496181
 20
552.58645730339367
 40
0.05
 50
0.000000000000007
 51
94.943247752830175
  0
LINE
  8
_1-e_
  6
CONTINUOUS
 62
    7
 10
188.903954550538
 20
551.84170516598897
 11
188.40395455057256
 21
551.84170516598897
  0
LINE
  8
_1-e_
  6
CONTINUOUS
 62
    7
 10
188.75421911496738
 20
552.74170516599042
 11
188.75421911496738
 21
552.04170516598424
  0
LINE
  8
_1-e_
  6
CONTINUOUS
 62
    7
 10
188.85395455057318
 20
552.04170516598424
 11
188.75421911496738
 21
552.04170516598424
  0
LINE
  8
_1-e_
  6
CONTINUOUS
 62
    7
 10
188.554219114972
 20
552.04170516598424
 11
188.45395455053722
 21
552.04170516598424
  0
LINE
  8
_1-e_
  6
CONTINUOUS
 62
    7
 10
188.40395455057256
 20
551.99170516598542
 11
188.40395455057256
 21
551.84170516598897
  0
ARC
  8
_1-e_
  6
CONTINUOUS
 62
    7
 10
188.45395455053722
 20
551.99170516598542
 40
0.05
 50
90
 51
180
  0
LINE
  8
_1-e_
  6
CONTINUOUS
 62
    7
 10
188.903954550538
 20
551.99170516598542
 11
188.903954550538
 21
551.84170516598897
  0
ARC
  8
_1-e_
  6
CONTINUOUS
 62
    7
 10
188.85395455057318
 20
551.99170516598542
 40
0.05
 50
0.000000000000007
 51
90.000000000000014
  0
LINE
  8
_1-e_
  6
CONTINUOUS
 62
    7
 10
188.40280999091698
 20
552.63598637888208
 11
188.49991066716535
 21
552.63627133031378
  0
LINE
  8
_1-e_
  6
CONTINUOUS
 62
    7
 10
188.32024926863187
 20
552.63627374345333
 11
188.40280999091698
 21
552.63598637888208
  0
LINE
  8
_1-e_
  6
CONTINUOUS
 62
    7
 10
184.93183122626357
 20
552.2542292159892
 11
188.32024926863187
 21
552.63627374345333
  0
LINE
  8
_1-e_
  6
CONTINUOUS
 62
    7
 10
192.23331485180591
 20
552.9417051659857
 11
192.23331485180591
 21
551.84170516598897
  0
LINE
  8
_1-e_
  6
CONTINUOUS
 62
    7
 10
191.94331485181061
 20
552.04170516598424
 11
192.0333148518107
 21
552.04170516598424
  0
LINE
  8
_1-e_
  6
CONTINUOUS
 62
    7
 10
191.89331485180043
 20
551.84170516598897
 11
191.89331485180043
 21
551.99170516598542
  0
ARC
  8
_1-e_
  6
CONTINUOUS
 62
    7
 10
191.94331485181061
 20
551.99170516598542
 40
0.05
 50
89.999999999927383
 51
180
  0
LINE
  8
_1-e_
  6
CONTINUOUS
 62
    7
 10
192.0333148518107
 20
552.74170516599042
 11
192.0333148518107
 21
552.04170516598424
  0
LINE
  8
_1-e_
  6
CONTINUOUS
 62
    7
 10
192.23331485180591
 20
551.84170516598897
 11
191.89331485180043
 21
551.84170516598897
  0
LINE
  8
_1-e_
  6
CONTINUOUS
 62
    7
 10
192.23331485180591
 20
552.9417051659857
 11
188.72418592699029
 21
552.9417051659857
  0
LINE
  8
_1-e_
  6
CONTINUOUS
 62
    7
 10
192.0333148518107
 20
552.74170516599042
 11
188.75421911496738
 21
552.74170516599042
  0
LINE
  8
_1-e_
  6
CONTINUOUS
 62
    7
 10
192.2433148518262
 20
552.95170516598318
 11
188.7341859270104
 21
552.95170516598318
  0
LINE
  8
_1-e_
  6
CONTINUOUS
 62
    7
 10
188.7341859270104
 20
553.45177378026392
 11
188.43331485180391
 21
553.45177378026392
  0
LINE
  8
_1-e_
  6
CONTINUOUS
 62
    7
 10
188.43331485180391
 20
553.45177378026392
 11
188.43331485180391
 21
554.25170516598644
  0
ARC
  8
_1-e_
  6
CONTINUOUS
 62
    7
 10
188.6741859269801
 20
553.39177378026761
 40
0.05
 50
0.000000000000007
 51
126.869897645845
  0
LINE
  8
_1-e_
  6
CONTINUOUS
 62
    7
 10
188.72418592699029
 20
553.34170516598761
 11
188.72418592699029
 21
553.39177378026761
  0
ARC
  8
_1-e_
  6
CONTINUOUS
 62
    7
 10
188.34487194306837
 20
553.16170516598731
 40
0.02
 50
132.19118800539223
 51
270
  0
LINE
  8
_1-e_
  6
CONTINUOUS
 62
    7
 10
188.33143981013149
 20
553.17652332392072
 11
188.64418592701031
 21
553.43177378026894
  0
LINE
  8
_1-e_
  6
CONTINUOUS
 62
    7
 10
188.34487194306837
 20
553.14170516598097
 11
188.5241859269949
 21
553.14170516598097
  0
LINE
  8
_1-e_
  6
CONTINUOUS
 62
    7
 10
188.7341859270104
 20
553.34170516598761
 11
188.7341859270104
 21
553.45177378026392
  0
LINE
  8
_1-e_
  6
CONTINUOUS
 62
    7
 10
194.14331485180401
 20
554.3417051659867
 11
188.52331485180417
 21
554.3417051659867
  0
ARC
  8
_1-e_
  6
CONTINUOUS
 62
    7
 10
194.14331485180401
 20
554.25170516598644
 40
0.0899999999999999
 50
0.0000000000020426
 51
90.000000000000014
  0
ARC
  8
_1-e_
  6
CONTINUOUS
 62
    7
 10
188.52331485180417
 20
554.25170516598644
 40
0.0899999999999999
 50
90
 51
180
  0
LINE
  8
_1-0_
  6
CONTINUOUS
 62
    7
 10
184.88183122625338
 20
551.84170516598897
 11
183.7818312262566
 21
551.84170516598897
  0
LINE
  8
_1-0_
  6
DASHED1
 62
    7
 10
194.2333148518041
 20
551.84170516598897
 11
192.2433148518262
 21
551.84170516598897
  0
LINE
  8
_1-0_
  6
DASHED1
 62
    7
 10
194.2333148518041
 20
552.95170516598318
 11
194.2333148518041
 21
551.84170516598897
  0
LINE
  8
_1-0_
  6
DASHED1
 62
    7
 10
192.2433148518262
 20
552.95170516598318
 11
192.2433148518262
 21
551.84170516598897
  0
LINE
  8
_1-0_
  6
CONTINUOUS
 62
    7
 10
188.43331485180391
 20
766.94170516598865
 11
183.7333148518041
 21
766.94170516598865
  0
LINE
  8
_1-0_
  6
CONTINUOUS
 62
    7
 10
183.7333148518041
 20
769.84170516598851
 11
183.73331485180393
 21
766.94170516598865
  0
LINE
  8
_1-0_
  6
CONTINUOUS
 62
    7
 10
194.2333148518041
 20
769.84170516598851
 11
183.7333148518041
 21
769.84170516598851
  0
LINE
  8
_1-0_
  6
CONTINUOUS
 62
    7
 10
194.2333148518041
 20
765.44170516598865
 11
188.43331485180391
 21
765.44170516598865
  0
LINE
  8
_1-0_
  6
CONTINUOUS
 62
    7
 10
188.43331485180391
 20
766.94170516598865
 11
188.43331485180391
 21
765.44170516598865
  0
LINE
  8
_1-0_
  6
CONTINUOUS
 62
    7
 10
194.2333148518041
 20
769.84170516598851
 11
194.2333148518041
 21
765.44170516598865
  0
LINE
  8
_1-0_
  6
CONTINUOUS
 62
    7
 10
183.7333148518041
 20
766.94170516598865
 11
183.73331485180393
 21
552.28870779720819
  0
LINE
  8
_1-0_
  6
CONTINUOUS
 62
    7
 10
188.43331485180408
 20
765.44170516598865
 11
188.43331485180391
 21
554.23455674273941
  0
LINE
  8
_1-0_
  6
CONTINUOUS
 62
    7
 10
194.23331485180393
 20
765.44170516598865
 11
194.2333148518041
 21
552.95170516598318
  0
LINE
  8
_1-e_
  6
CONTINUOUS
 62
   18
 10
193.23331485185565
 20
633.0667051659907
 11
184.63331485185563
 21
633.0667051659907
  0
LINE
  8
_1-e_
  6
CONTINUOUS
 62
   18
 10
184.63331485185563
 20
615.06670516599058
 11
193.23331485185565
 21
615.06670516599058
  0
LINE
  8
_1-e_
  6
CONTINUOUS
 62
   18
 10
183.73331485180393
 20
670.03929423142574
 11
186.28331485177773
 21
670.03929423142574
  0
ARC
  8
_1-e_
  6
CONTINUOUS
 62
   18
 10
186.08331485182805
 20
665.88924763841965
 40
1.6574999999998696
 50
5.4526219878063671
 51
174.54737801219281
  0
ARC
  8
_1-e_
  6
CONTINUOUS
 62
   18
 10
186.08331485182805
 20
654.194162693561
 40
1.6574999999998696
 50
185.45262198780722
 51
354.54737801219358
  0
LINE
  8
_1-e_
  6
CONTINUOUS
 62
   18
 10
183.73331485180393
 20
650.03929423142358
 11
186.28331485177773
 21
650.03929423142358
  0
ARC
  8
_1-e_
  6
CONTINUOUS
 62
   18
 10
186.08331485182805
 20
628.91140954394666
 40
1.6574999999998696
 50
5.4526219878063671
 51
174.54737801219281
  0
ARC
  8
_1-e_
  6
CONTINUOUS
 62
   18
 10
186.08331485182805
 20
627.41172217203109
 40
1.6574999999998696
 50
5.4526219878063671
 51
174.54737801219281
  0
ARC
  8
_1-e_
  6
CONTINUOUS
 62
   18
 10
186.08331485182805
 20
620.72027856789953
 40
1.6574999999998696
 50
185.45262198780722
 51
354.54737801219358
  0
ARC
  8
_1-e_
  6
CONTINUOUS
 62
   18
 10
186.08331485182805
 20
619.22200078807998
 40
1.6574999999998696
 50
185.45262198780722
 51
354.54737801219358
  0
LINE
  8
_1-e_
  6
CONTINUOUS
 62
   18
 10
184.43331485185564
 20
615.26670516599052
 11
184.43331485185564
 21
632.86670516599065
  0
ARC
  8
_1-e_
  6
CONTINUOUS
 62
   18
 10
184.63331485185563
 20
615.26670516599052
 40
0.2
 50
180.0000000000004
 51
270.00000000000051
  0
ARC
  8
_1-e_
  6
CONTINUOUS
 62
   18
 10
184.63331485185563
 20
632.86670516599065
 40
0.2
 50
90.000000000000199
 51
180.0000000000004
  0
LINE
  8
_1-e_
  6
CONTINUOUS
 62
   18
 10
184.43331749257345
 20
654.03663503107487
 11
184.43331749257345
 21
666.04677530090589
  0
LINE
  8
_1-e_
  6
CONTINUOUS
 62
   18
 10
183.73331485180393
 20
670.13929423142577
 11
183.73331485180393
 21
650.03929423142358
  0
CIRCLE
  8
_1-e_
  6
STYLE_05
 62
   18
 10
190.63331485185563
 20
620.60590026236923
 40
2
  0
LINE
  8
_1-e_
  6
CONTINUOUS
 62
   18
 10
193.43331485185564
 20
632.86670516599065
 11
193.43331485185564
 21
615.26670516599052
  0
LINE
  8
_1-e_
  6
CONTINUOUS
 62
   18
 10
187.73331485180029
 20
619.06450078805688
 11
187.73331485180029
 21
629.06890954392418
  0
CIRCLE
  8
_1-e_
  6
CONTINUOUS
 62
   18
 10
187.03331485185566
 20
616.06670516599058
 40
0.1749999999999999
  0
CIRCLE
  8
_1-e_
  6
STYLE_04
 62
   18
 10
187.03331485185566
 20
616.06670516599058
 40
0.5249999999999999
  0
CIRCLE
  8
_1-e_
  6
CONTINUOUS
 62
   18
 10
187.03331485185566
 20
616.06670516599058
 40
0.2749999999999999
  0
LINE
  8
_1-e_
  6
STYLE_02
 62
   18
 10
186.15033782086465
 20
616.06670516599058
 11
187.95816002095319
 21
616.06670516599058
  0
LINE
  8
_1-e_
  6
STYLE_02
 62
   18
 10
187.03331485185566
 20
616.9784965095273
 11
187.03331485185566
 21
615.3450953587477
  0
ARC
  8
_1-e_
  6
CONTINUOUS
 62
   18
 10
193.23331485185565
 20
615.26670516599052
 40
0.2
 50
270.00000000000051
 51
0.0000000000000127
  0
CIRCLE
  8
_1-e_
  6
CONTINUOUS
 62
   18
 10
190.63331485185563
 20
616.06670516599058
 40
0.1749999999999999
  0
CIRCLE
  8
_1-e_
  6
CONTINUOUS
 62
   18
 10
190.63331485185563
 20
616.06670516599058
 40
0.2749999999999999
  0
LINE
  8
_1-e_
  6
STYLE_02
 62
   18
 10
190.63331485185563
 20
616.9784965095273
 11
190.63331485185563
 21
615.3450953587477
  0
CIRCLE
  8
_1-e_
  6
STYLE_04
 62
   18
 10
190.63331485185563
 20
616.06670516599058
 40
0.5249999999999999
  0
LINE
  8
_1-e_
  6
STYLE_02
 62
   18
 10
189.76598222104172
 20
616.06670516599058
 11
191.50001575990217
 21
616.06670516599058
  0
LINE
  8
_1-e_
  6
CONTINUOUS
 62
   18
 10
185.96250264798738
 20
617.56890954394601
 11
186.20412705566855
 21
617.56890954394601
  0
CIRCLE
  8
_1-e_
  6
STYLE_05
 62
   18
 10
190.63331485185563
 20
627.60590026236923
 40
2
  0
CIRCLE
  8
_1-e_
  6
STYLE_04
 62
   18
 10
192.4333148518557
 20
624.06670516599058
 40
0.5249999999999999
  0
CIRCLE
  8
_1-e_
  6
CONTINUOUS
 62
   18
 10
192.4333148518557
 20
624.06670516599058
 40
0.1749999999999999
  0
CIRCLE
  8
_1-e_
  6
CONTINUOUS
 62
   18
 10
192.4333148518557
 20
624.06670516599058
 40
0.2749999999999999
  0
LINE
  8
_1-e_
  6
STYLE_02
 62
   18
 10
192.4333148518557
 20
623.36670516599065
 11
192.4333148518557
 21
624.76670516599074
  0
CIRCLE
  8
_1-e_
  6
CONTINUOUS
 62
   18
 10
188.83331485185556
 20
624.06670516599058
 40
0.1749999999999999
  0
CIRCLE
  8
_1-e_
  6
STYLE_04
 62
   18
 10
188.83331485185556
 20
624.06670516599058
 40
0.5249999999999999
  0
CIRCLE
  8
_1-e_
  6
CONTINUOUS
 62
   18
 10
188.83331485185556
 20
624.06670516599058
 40
0.2749999999999999
  0
LINE
  8
_1-e_
  6
STYLE_02
 62
   18
 10
188.83331485185556
 20
623.36670516599065
 11
188.83331485185556
 21
624.76670516599074
  0
LINE
  8
_1-e_
  6
STYLE_03
 62
   18
 10
186.08331485182788
 20
626.5667051659907
 11
186.08331485182805
 21
621.5667051659907
  0
CIRCLE
  8
_1-e_
  6
CONTINUOUS
 62
   18
 10
187.03331485185566
 20
632.0667051659907
 40
0.1749999999999999
  0
LINE
  8
_1-e_
  6
STYLE_02
 62
   18
 10
187.03331485185566
 20
632.86670516599065
 11
187.03331485185566
 21
631.16785674989342
  0
CIRCLE
  8
_1-e_
  6
STYLE_04
 62
   18
 10
187.03331485185566
 20
632.0667051659907
 40
0.5249999999999999
  0
CIRCLE
  8
_1-e_
  6
CONTINUOUS
 62
   18
 10
187.03331485185566
 20
632.0667051659907
 40
0.2749999999999999
  0
LINE
  8
_1-e_
  6
STYLE_02
 62
   18
 10
186.15033782086465
 20
632.0667051659907
 11
187.95816002095319
 21
632.0667051659907
  0
ARC
  8
_1-e_
  6
CONTINUOUS
 62
   18
 10
193.23331485185565
 20
632.86670516599065
 40
0.2
 50
0
 51
90.000000000000199
  0
CIRCLE
  8
_1-e_
  6
CONTINUOUS
 62
   18
 10
190.63331485185563
 20
632.0667051659907
 40
0.1749999999999999
  0
CIRCLE
  8
_1-e_
  6
CONTINUOUS
 62
   18
 10
190.63331485185563
 20
632.0667051659907
 40
0.2749999999999999
  0
LINE
  8
_1-e_
  6
STYLE_02
 62
   18
 10
190.63331485185563
 20
632.86670516599065
 11
190.63331485185563
 21
631.16785674989342
  0
CIRCLE
  8
_1-e_
  6
STYLE_04
 62
   18
 10
190.63331485185563
 20
632.0667051659907
 40
0.5249999999999999
  0
LINE
  8
_1-e_
  6
STYLE_02
 62
   18
 10
189.76598222104172
 20
632.0667051659907
 11
191.50001575990217
 21
632.0667051659907
  0
LINE
  8
_1-e_
  6
CONTINUOUS
 62
   18
 10
187.73331485180029
 20
651.48929423144614
 11
187.73331485180029
 21
668.68929423144868
  0
ARC
  8
_1-e_
  6
CONTINUOUS
 62
   18
 10
186.28331485177773
 20
651.48929423144614
 40
1.45
 50
270
 51
0
  0
LINE
  8
_1-e_
  6
STYLE_03
 62
   18
 10
186.08331485182805
 20
662.54170516599038
 11
186.08331485182805
 21
657.54170516599038
  0
ARC
  8
_1-e_
  6
CONTINUOUS
 62
   18
 10
186.28331485177773
 20
668.58929423142581
 40
1.45
 50
0
 51
89.999999999999815
  0
CIRCLE
  8
_1-e_
  6
CONTINUOUS
 62
   18
 10
189.93331485180391
 20
636.84170516598829
 40
0.6999999999999999
  0
LINE
  8
_1-e_
  6
STYLE_03
 62
   18
 10
188.73331485180398
 20
636.84170516598829
 11
191.13331485180402
 21
636.84170516598829
  0
LINE
  8
_1-e_
  6
STYLE_03
 62
   18
 10
189.93331485180391
 20
638.04170516598833
 11
189.93331485180391
 21
635.64170516598824
  0
LINE
  8
_1-e_
  6
STYLE_03
 62
   18
 10
188.72603171873698
 20
583.04170516598822
 11
191.12603171873701
 21
583.04170516598822
  0
CIRCLE
  8
_1-e_
  6
CONTINUOUS
 62
   18
 10
189.92603171873691
 20
583.04170516598822
 40
0.6999999999999999
  0
LINE
  8
_1-e_
  6
STYLE_03
 62
   18
 10
189.92603171873691
 20
584.24170516598815
 11
189.92603171873691
 21
581.84170516598817
  0
LINE
  8
_1-e_
  6
STYLE_03
 62
   18
 10
188.73331485180398
 20
690.62455674274156
 11
191.13331485180402
 21
690.62455674274156
  0
CIRCLE
  8
_1-e_
  6
CONTINUOUS
 62
   18
 10
189.93331485180391
 20
690.62455674274156
 40
0.6999999999999999
  0
LINE
  8
_1-e_
  6
STYLE_03
 62
   18
 10
189.93331485180391
 20
691.82455674274149
 11
189.93331485180391
 21
689.42455674274152
  0
CIRCLE
  8
_1-e_
  6
CONTINUOUS
 62
   18
 10
189.93331485180391
 20
737.04170516598879
 40
0.6999999999999999
  0
LINE
  8
_1-e_
  6
STYLE_03
 62
   18
 10
189.93331485180391
 20
738.24170516598883
 11
189.93331485180391
 21
735.84170516598874
  0
LINE
  8
_1-e_
  6
STYLE_03
 62
   18
 10
188.73331485180398
 20
737.04170516598879
 11
191.13331485180402
 21
737.04170516598879
  0
LINE
  8
_1-e_
  6
CONTINUOUS
 62
    7
 10
386.47244374105935
 20
552.95170516598318
 11
386.47244374105935
 21
553.34170516598761
  0
LINE
  8
_1-e_
  6
CONTINUOUS
 62
    7
 10
386.48244374107969
 20
552.9417051659857
 11
386.48244374107969
 21
553.34170516598761
  0
LINE
  8
_1-e_
  6
CONTINUOUS
 62
    7
 10
386.68244374107485
 20
552.85479799889799
 11
386.68244374107485
 21
553.14170516598097
  0
LINE
  8
_1-e_
  6
CONTINUOUS
 62
    7
 10
391.47479844181328
 20
551.94414270499919
 11
391.47479844181328
 21
551.89170516598779
  0
LINE
  8
_1-e_
  6
CONTINUOUS
 62
    7
 10
391.47479844181328
 20
552.29376649713458
 11
391.47479844181328
 21
552.24132895812318
  0
LINE
  8
_1-e_
  6
STYLE_01
 62
    7
 10
380.97331481626566
 20
552.95170516598318
 11
380.97331481626566
 21
551.84170516598897
  0
LINE
  8
_1-e_
  6
CONTINUOUS
 62
    7
 10
380.98059794933204
 20
551.84170516598886
 11
380.97331481626566
 21
551.84898829905512
  0
LINE
  8
_1-e_
  6
CONTINUOUS
 62
    7
 10
382.97331481626384
 20
551.84170516598897
 11
383.31331481626955
 21
551.84170516598897
  0
LINE
  8
_1-e_
  6
CONTINUOUS
 62
    7
 10
383.17331481625916
 20
552.74170516599042
 11
383.17331481625916
 21
552.04170516598424
  0
ARC
  8
_1-e_
  6
CONTINUOUS
 62
    7
 10
383.26331481625937
 20
551.99170516598542
 40
0.05
 50
0.000000000000007
 51
90.000000000072674
  0
LINE
  8
_1-e_
  6
CONTINUOUS
 62
    7
 10
383.31331481626955
 20
551.84170516598897
 11
383.31331481626955
 21
551.99170516598542
  0
LINE
  8
_1-e_
  6
CONTINUOUS
 62
    7
 10
383.26331481625937
 20
552.04170516598424
 11
383.17331481625916
 21
552.04170516598424
  0
LINE
  8
_1-e_
  6
STYLE_01
 62
    7
 10
382.96331481624367
 20
552.95170516598318
 11
382.96331481624367
 21
551.84170516598897
  0
LINE
  8
_1-e_
  6
CONTINUOUS
 62
    7
 10
382.97331481626378
 20
552.9417051659857
 11
382.97331481626384
 21
551.84170516598897
  0
LINE
  8
_1-e_
  6
STYLE_01
 62
    7
 10
380.97331481626566
 20
551.84170516598897
 11
382.96331481624367
 21
551.84170516598897
  0
LINE
  8
_1-e_
  6
CONTINUOUS
 62
    7
 10
386.88638039943794
 20
552.63627374345333
 11
386.803819677153
 21
552.63598637888208
  0
LINE
  8
_1-e_
  6
CONTINUOUS
 62
    7
 10
386.803819677153
 20
552.63598637888208
 11
386.70671900090463
 21
552.63627133031378
  0
LINE
  8
_1-e_
  6
CONTINUOUS
 62
    7
 10
386.30267511753198
 20
551.84170516598897
 11
386.80267511749742
 21
551.84170516598897
  0
ARC
  8
_1-e_
  6
CONTINUOUS
 62
    7
 10
386.35267511749669
 20
551.99170516598542
 40
0.05
 50
90
 51
180
  0
LINE
  8
_1-e_
  6
CONTINUOUS
 62
    7
 10
386.30267511753198
 20
551.99170516598542
 11
386.30267511753198
 21
551.84170516598897
  0
ARC
  8
_1-e_
  6
CONTINUOUS
 62
    7
 10
386.75267511753265
 20
551.99170516598542
 40
0.05
 50
0.000000000000007
 51
90.000000000000014
  0
LINE
  8
_1-e_
  6
CONTINUOUS
 62
    7
 10
386.80267511749742
 20
551.99170516598542
 11
386.80267511749742
 21
551.84170516598897
  0
LINE
  8
_1-e_
  6
CONTINUOUS
 62
    7
 10
386.35267511749669
 20
552.04170516598424
 11
386.4524105531026
 21
552.04170516598424
  0
LINE
  8
_1-e_
  6
CONTINUOUS
 62
    7
 10
386.65241055309775
 20
552.04170516598424
 11
386.75267511753265
 21
552.04170516598424
  0
LINE
  8
_1-e_
  6
CONTINUOUS
 62
    7
 10
386.4524105531026
 20
552.74170516599042
 11
386.4524105531026
 21
552.04170516598424
  0
ARC
  8
_1-e_
  6
CONTINUOUS
 62
    7
 10
386.70241055310794
 20
552.58645730339367
 40
0.05
 50
85.056752247169854
 51
180
  0
LINE
  8
_1-e_
  6
CONTINUOUS
 62
    7
 10
386.65241055309775
 20
552.58645730339367
 11
386.65241055309775
 21
552.04170516598424
  0
ARC
  8
_1-e_
  6
CONTINUOUS
 62
    7
 10
390.52784287947486
 20
552.09040264514135
 40
0.05
 50
180
 51
267.07575486322372
  0
ARC
  8
_1-e_
  6
CONTINUOUS
 62
    7
 10
390.52784287947486
 20
552.09538372251166
 40
0.05
 50
92.928164949731141
 51
180
  0
LINE
  8
_1-e_
  6
CONTINUOUS
 62
    7
 10
391.42479844181327
 20
552.19132895812436
 11
390.52224424804155
 21
552.14516271584205
  0
ARC
  8
_1-e_
  6
CONTINUOUS
 62
    7
 10
391.42479844181327
 20
552.29376649713458
 40
0.05
 50
0.000000000000007
 51
87.137594773874838
  0
ARC
  8
_1-e_
  6
CONTINUOUS
 62
    7
 10
391.42479844181327
 20
552.24132895812318
 40
0.05
 50
270
 51
359.99999999997522
  0
LINE
  8
_1-e_
  6
CONTINUOUS
 62
    7
 10
390.47784287946467
 20
552.09538372251166
 11
390.47784287946467
 21
552.09040264514135
  0
LINE
  8
_1-e_
  6
CONTINUOUS
 62
    7
 10
391.42729532263809
 20
551.99408032194913
 11
390.52224766424007
 21
552.04031202719307
  0
ARC
  8
_1-e_
  6
CONTINUOUS
 62
    7
 10
390.3247984418166
 20
551.89170516598779
 40
0.05
 50
180
 51
270
  0
LINE
  8
_1-e_
  6
CONTINUOUS
 62
    7
 10
390.27479844180641
 20
552.2542292159892
 11
390.27479844180641
 21
551.89170516598779
  0
ARC
  8
_1-e_
  6
CONTINUOUS
 62
    7
 10
391.42479844181327
 20
551.94414270499919
 40
0.05
 50
0.000000000000007
 51
87.137594773874838
  0
ARC
  8
_1-e_
  6
CONTINUOUS
 62
    7
 10
391.42479844181327
 20
551.89170516598779
 40
0.05
 50
270
 51
359.99999999997522
  0
LINE
  8
_1-e_
  6
CONTINUOUS
 62
    7
 10
390.3247984418166
 20
551.84170516598897
 11
391.42479844181327
 21
551.84170516598897
  0
LINE
  8
_1-e_
  6
CONTINUOUS
 62
    7
 10
390.27479844180641
 20
552.2542292159892
 11
386.88638039943794
 21
552.63627374345333
  0
LINE
  8
_1-e_
  6
CONTINUOUS
 62
    7
 10
391.42798130074164
 20
552.34366508838764
 11
386.68244374107485
 21
552.85479799889799
  0
LINE
  8
_1-e_
  6
CONTINUOUS
 62
    7
 10
382.96331481624367
 20
552.95170516598318
 11
386.47244374105935
 21
552.95170516598318
  0
LINE
  8
_1-e_
  6
CONTINUOUS
 62
    7
 10
383.17331481625916
 20
552.74170516599042
 11
386.4524105531026
 21
552.74170516599042
  0
LINE
  8
_1-e_
  6
CONTINUOUS
 62
    7
 10
382.97331481626384
 20
552.9417051659857
 11
386.48244374107969
 21
552.9417051659857
  0
LINE
  8
_1-e_
  6
CONTINUOUS
 62
    7
 10
386.47244374105935
 20
553.34170516598761
 11
386.47244374105935
 21
553.45177378026392
  0
LINE
  8
_1-e_
  6
CONTINUOUS
 62
    7
 10
386.86175772500144
 20
553.14170516598097
 11
386.68244374107485
 21
553.14170516598097
  0
LINE
  8
_1-e_
  6
CONTINUOUS
 62
    7
 10
386.87518985793838
 20
553.17652332392072
 11
386.56244374105955
 21
553.43177378026894
  0
ARC
  8
_1-e_
  6
CONTINUOUS
 62
    7
 10
386.86175772500144
 20
553.16170516598731
 40
0.02
 50
270
 51
47.808811994607829
  0
LINE
  8
_1-e_
  6
CONTINUOUS
 62
    7
 10
386.48244374107969
 20
553.34170516598761
 11
386.48244374107969
 21
553.39177378026761
  0
ARC
  8
_1-e_
  6
CONTINUOUS
 62
    7
 10
386.53244374108988
 20
553.39177378026761
 40
0.05
 50
53.130102354154971
 51
180
  0
LINE
  8
_1-e_
  6
CONTINUOUS
 62
    7
 10
386.77331481626578
 20
553.45177378026392
 11
386.77331481626578
 21
554.25170516598644
  0
LINE
  8
_1-e_
  6
CONTINUOUS
 62
    7
 10
386.47244374105935
 20
553.45177378026392
 11
386.77331481626578
 21
553.45177378026392
  0
ARC
  8
_1-e_
  6
CONTINUOUS
 62
    7
 10
386.68331481626558
 20
554.25170516598644
 40
0.0899999999999999
 50
0.000000000000007
 51
90.000000000000014
  0
ARC
  8
_1-e_
  6
CONTINUOUS
 62
    7
 10
381.06331481626586
 20
554.25170516598644
 40
0.0899999999999999
 50
90
 51
179.99999999999801
  0
LINE
  8
_1-0_
  6
CONTINUOUS
 62
    7
 10
381.06331481626586
 20
554.3417051659867
 11
386.68331481626558
 21
554.3417051659867
  0
TEXT
  8
_1-e_
 62
    4
 10
391.10569532062772
 20
513.32684710175226
 40
7.5
 41
1
 50
0
  1
取付位置
  0
TEXT
  8
_1-e_
 62
    4
 10
368.29180499363531
 20
522.05909036796686
 40
7.5
 41
1
 50
0
  1
外枠スクリュー
  0
LINE
  8
_1-0_
  6
CONTINUOUS
 62
    7
 10
380.97331481626566
 20
769.84170516598817
 11
391.47331481626566
 21
769.84170516598817
  0
LINE
  8
_1-0_
  6
CONTINUOUS
 62
    7
 10
386.77331481626578
 20
766.9417051659882
 11
391.47331481626566
 21
766.9417051659882
  0
LINE
  8
_1-0_
  6
CONTINUOUS
 62
    7
 10
386.77331481626578
 20
766.9417051659882
 11
386.77331481626578
 21
765.4417051659882
  0
LINE
  8
_1-0_
  6
CONTINUOUS
 62
    7
 10
391.47331481626566
 20
769.84170516598817
 11
391.47331481626577
 21
766.9417051659882
  0
LINE
  8
_1-0_
  6
CONTINUOUS
 62
    7
 10
380.97331481626583
 20
765.4417051659882
 11
386.77331481626578
 21
765.4417051659882
  0
LINE
  8
_1-0_
  6
CONTINUOUS
 62
    7
 10
380.97331481626566
 20
769.84170516598817
 11
380.97331481626583
 21
765.4417051659882
  0
LINE
  8
_1-0_
  6
CONTINUOUS
 62
    7
 10
380.97331481626577
 20
765.4417051659882
 11
380.97331481626566
 21
552.95170516598318
  0
LINE
  8
_1-0_
  6
CONTINUOUS
 62
    7
 10
386.77331481626578
 20
765.4417051659882
 11
386.77331481626584
 21
554.23455674273885
  0
LINE
  8
_1-0_
  6
CONTINUOUS
 62
    7
 10
391.47331481626566
 20
766.9417051659882
 11
391.47331481626588
 21
552.28870779720762
  0
ARC
  8
_1-e_
  6
CONTINUOUS
 62
   18
 10
389.27815340457414
 20
734.61826992652675
 40
0.9062500000000284
 50
186.73292132685637
 51
353.26707867314371
  0
ARC
  8
_1-e_
  6
CONTINUOUS
 62
   18
 10
389.27331481627232
 20
734.82027659456844
 40
1.378571428571618
 50
209.4871256729366
 51
330.51287432705612
  0
LINE
  8
_1-e_
  6
CONTINUOUS
 62
   18
 10
387.82331481627239
 20
732.9917051659362
 11
387.82331481627239
 21
741.09170516594929
  0
LINE
  8
_1-e_
  6
CONTINUOUS
 62
   18
 10
391.47331481626566
 20
731.54170516600459
 11
391.47331481626566
 21
742.54170516597185
  0
LINE
  8
_1-e_
  6
CONTINUOUS
 62
   18
 10
391.47331481626566
 20
731.51670516599938
 11
389.27331481627232
 21
731.51670516599938
  0
ARC
  8
_1-e_
  6
CONTINUOUS
 62
   18
 10
389.27331481627232
 20
732.96670516593122
 40
1.45
 50
180
 51
270
  0
ARC
  8
_1-e_
  6
CONTINUOUS
 62
   18
 10
389.27815340457414
 20
739.4587940601964
 40
0.9062500000000284
 50
353.26707869420358
 51
186.73292130608172
  0
ARC
  8
_1-e_
  6
CONTINUOUS
 62
   18
 10
389.27331481627232
 20
739.26762977862779
 40
1.3740753873253388
 50
29.153875979131023
 51
150.84612402086543
  0
LINE
  8
_1-e_
  6
CONTINUOUS
 62
   18
 10
390.47331481626668
 20
734.14170516598858
 11
390.47331481626668
 21
739.93701992649608
  0
LINE
  8
_1-e_
  6
CONTINUOUS
 62
   18
 10
388.07331481627784
 20
734.14170516598858
 11
388.07331481627784
 21
739.93701992649608
  0
LINE
  8
_1-e_
  6
CONTINUOUS
 62
   18
 10
390.17815340457571
 20
734.51201992648237
 11
390.17815340457571
 21
739.50332731356355
  0
LINE
  8
_1-e_
  6
CONTINUOUS
 62
   18
 10
388.37815340457269
 20
734.51201992648237
 11
388.37815340457269
 21
739.50332731356355
  0
LINE
  8
_1-e_
  6
CONTINUOUS
 62
   18
 10
391.47331481626566
 20
742.56670516597706
 11
389.27331481627232
 21
742.56670516597706
  0
ARC
  8
_1-e_
  6
CONTINUOUS
 62
   18
 10
389.27331481627232
 20
741.1167051659545
 40
1.45
 50
90
 51
180
  0
CIRCLE
  8
_1-e_
  6
CONTINUOUS
 62
   18
 10
385.27331481626578
 20
737.04170516598822
 40
0.6999999999999999
  0
LINE
  8
_1-e_
  6
STYLE_03
 62
   18
 10
385.27331481626578
 20
738.24170516598826
 11
385.27331481626578
 21
735.84170516598829
  0
LINE
  8
_1-e_
  6
CONTINUOUS
 62
   18
 10
385.84380476295621
 20
736.63606835710016
 11
384.70282486957524
 21
737.44734197487628
  0
POINT
  8
_1-e_
 62
   18
 10
385.27331481626584
 20
737.08749977507318
  0
LINE
  8
_1-e_
  6
STYLE_03
 62
   18
 10
385.27331481626578
 20
691.84170516598829
 11
385.27331481626578
 21
689.4417051659882
  0
LINE
  8
_1-e_
  6
STYLE_03
 62
   18
 10
386.47331481626577
 20
690.64170516598824
 11
384.07331481626579
 21
690.64170516598824
  0
CIRCLE
  8
_1-e_
  6
CONTINUOUS
 62
   18
 10
385.27331481626578
 20
690.64170516598824
 40
0.6999999999999999
  0
LINE
  8
_1-e_
  6
STYLE_03
 62
   18
 10
385.27331481626578
 20
638.04170516598822
 11
385.27331481626578
 21
635.64170516598824
  0
CIRCLE
  8
_1-e_
  6
CONTINUOUS
 62
   18
 10
385.27331481626578
 20
636.84170516598829
 40
0.6999999999999999
  0
LINE
  8
_1-e_
  6
STYLE_03
 62
   18
 10
386.47331481626577
 20
636.84170516598829
 11
384.07331481626579
 21
636.84170516598829
  0
LINE
  8
_1-e_
  6
CONTINUOUS
 62
   18
 10
387.83059794933945
 20
578.97455674268895
 11
387.83059794933945
 21
587.07455674270204
  0
LINE
  8
_1-e_
  6
CONTINUOUS
 62
   18
 10
391.48059794933272
 20
577.52455674275723
 11
391.48059794933272
 21
588.5245567427246
  0
LINE
  8
_1-e_
  6
CONTINUOUS
 62
   18
 10
391.48059794933272
 20
577.49955674275225
 11
389.28059794933927
 21
577.49955674275225
  0
ARC
  8
_1-e_
  6
CONTINUOUS
 62
   18
 10
389.28059794933927
 20
578.94955674268385
 40
1.45
 50
180
 51
270
  0
ARC
  8
_1-e_
  6
CONTINUOUS
 62
   18
 10
389.28059794933927
 20
585.25048135538054
 40
1.3740753873253388
 50
29.153875979131023
 51
150.84612402086543
  0
ARC
  8
_1-e_
  6
CONTINUOUS
 62
   18
 10
389.28543653764109
 20
585.44164563694903
 40
0.9062500000000284
 50
353.26707869420358
 51
186.73292130608172
  0
LINE
  8
_1-e_
  6
CONTINUOUS
 62
   18
 10
390.18543653764266
 20
580.494871503235
 11
390.18543653764266
 21
585.4861788903163
  0
LINE
  8
_1-e_
  6
CONTINUOUS
 62
   18
 10
390.48059794933368
 20
580.12455674274122
 11
390.48059794933368
 21
585.91987150324883
  0
LINE
  8
_1-e_
  6
CONTINUOUS
 62
   18
 10
388.38543653763975
 20
580.494871503235
 11
388.38543653763975
 21
585.4861788903163
  0
LINE
  8
_1-e_
  6
CONTINUOUS
 62
   18
 10
388.08059794934479
 20
580.12455674274122
 11
388.08059794934479
 21
585.91987150324883
  0
ARC
  8
_1-e_
  6
CONTINUOUS
 62
   18
 10
389.28059794933927
 20
580.80312817132108
 40
1.378571428571618
 50
209.4871256729366
 51
330.51287432705612
  0
ARC
  8
_1-e_
  6
CONTINUOUS
 62
   18
 10
389.28543653764109
 20
580.6011215032795
 40
0.9062500000000284
 50
186.73292132685637
 51
353.26707867314371
  0
LINE
  8
_1-e_
  6
CONTINUOUS
 62
   18
 10
391.48059794933272
 20
588.54955674272969
 11
389.28059794933927
 21
588.54955674272969
  0
ARC
  8
_1-e_
  6
CONTINUOUS
 62
   18
 10
389.28059794933927
 20
587.09955674270714
 40
1.45
 50
90
 51
180
  0
LINE
  8
_1-e_
  6
STYLE_03
 62
   18
 10
385.28059794933267
 20
584.22455674274102
 11
385.28059794933267
 21
581.82455674274104
  0
CIRCLE
  8
_1-e_
  6
CONTINUOUS
 62
   18
 10
385.28059794933267
 20
583.02455674274108
 40
0.6999999999999999
  0
LINE
  8
_1-e_
  6
CONTINUOUS
 62
   18
 10
385.82203629387743
 20
582.58088510847028
 11
384.73915960478791
 21
583.46822837701177
  0
INSERT
  2
-000-_DOTSMALL
  8
_1-e_
 10
385.82203629387743
 20
582.58088510847028
 41
0.6666666666666666
 42
0.6666666666666666
 50
140.6677294296546
  0
INSERT
  2
-000-_DOTSMALL
  8
_1-e_
 10
384.73915960478791
 20
583.46822837701177
 41
0.6666666666666666
 42
0.6666666666666666
 50
320.66772942965468
  0
POINT
  8
_1-e_
 62
   18
 10
384.73915960478791
 20
583.46822837701177
  0
POINT
  8
_1-e_
 62
   18
 10
385.82203629387743
 20
582.58088510847028
  0
INSERT
  2
-000-_DOTSMALL
  8
_1-e_
 10
384.73915960478791
 20
583.46822837701177
 41
0.6666666666666666
 42
-0.6666666666666666
 50
-399.33227057034492
  0
INSERT
  2
-000-_DOTSMALL
  8
_1-e_
 10
385.82203629387743
 20
582.58088510847028
 41
0.6666666666666666
 42
-0.6666666666666666
 50
-219.3322705703448
  0
LINE
  8
_1-d_
  6
CONTINUOUS
 62
   18
 10
337.00331483403477
 20
547.0717051837587
 11
337.00331483403477
 21
511.07170520611038
  0
LINE
  8
_1-d_
  6
CONTINUOUS
 62
   18
 10
238.20331483403595
 20
517.0717051837587
 11
337.00331483403477
 21
517.0717051837587
  0
CIRCLE
  8
_1-d_
  6
CONTINUOUS
 62
   18
 10
337.00331483403477
 20
517.0717051837587
 40
1.7254760742187498
  0
LINE
  8
_1-d_
  6
CONTINUOUS
 62
   18
 10
337.00331483403477
 20
517.0717051837587
 11
341.7733148162651
 21
517.0717051837587
  0
CIRCLE
  8
_1-d_
  6
CONTINUOUS
 62
   18
 10
238.20331483403595
 20
517.0717051837587
 40
1.7254760742187498
  0
LINE
  8
_1-d_
  6
CONTINUOUS
 62
   18
 10
233.43331485180562
 20
517.0717051837587
 11
238.20331483403595
 21
517.0717051837587
  0
TEXT
  8
_1-d_
 62
    4
 10
270.9181864336075
 20
517.90300330200739
 40
7.5
 41
1
 50
0
  1
外枠W=988
  0
LINE
  8
_1-d_
  6
CONTINUOUS
 62
   18
 10
238.20331483403595
 20
547.0717051837587
 11
238.20331483403595
 21
511.07170520611038
  0
CIRCLE
  8
_1-d_
  6
CONTINUOUS
 62
   18
 10
241.35331483403496
 20
527.07170518375858
 40
1.7254760742187498
  0
LINE
  8
_1-d_
  6
CONTINUOUS
 62
   18
 10
241.35331483403496
 20
547.0717051837587
 11
241.35331483403496
 21
521.07170520611044
  0
INSERT
  2
-000-_DOTSMALL
  8
_1-d_
 10
337.00331483403477
 20
544.67393395668375
 41
-0.6666666666666666
 42
0.6666666666666666
 50
-180
  0
LINE
  8
_1-d_
  6
CONTINUOUS
 62
   18
 10
236.58331485180463
 20
527.07170518375858
 11
338.49831481626507
 21
527.07170518375858
  0
CIRCLE
  8
_1-d_
  6
CONTINUOUS
 62
   18
 10
333.85331483403473
 20
527.07170518375858
 40
1.7254760742187498
  0
LINE
  8
_1-d_
  6
CONTINUOUS
 62
   18
 10
333.85331483403473
 20
547.0717051837587
 11
333.85331483403473
 21
521.07170520611044
  0
TEXT
  8
_1-d_
 62
    4
 10
270.9181864336075
 20
527.90300330200739
 40
7.5
 41
1
 50
0
  1
ドアW=925
  0
LINE
  8
_1-d_
  6
CONTINUOUS
 62
   18
 10
233.43331485180562
 20
820.90584047525238
 11
341.7733148162651
 21
820.90584047525238
  0
CIRCLE
  8
_1-d_
  6
CONTINUOUS
 62
   18
 10
241.35331483403496
 20
820.90584047525238
 40
1.7254760742187498
  0
LINE
  8
_1-d_
  6
CONTINUOUS
 62
   18
 10
241.35331483403496
 20
800.90584047525249
 11
241.35331483403496
 21
826.90584045290063
  0
CIRCLE
  8
_1-d_
  6
CONTINUOUS
 62
   18
 10
333.85331483403473
 20
820.90584047525238
 40
1.7254760742187498
  0
LINE
  8
_1-d_
  6
CONTINUOUS
 62
   18
 10
333.85331483403473
 20
800.90584047525249
 11
333.85331483403473
 21
826.90584045290063
  0
CIRCLE
  8
_1-d_
  6
CONTINUOUS
 62
   18
 10
238.20331483403595
 20
820.90584047525238
 40
1.7254760742187498
  0
CIRCLE
  8
_1-d_
  6
CONTINUOUS
 62
   18
 10
337.00331483403477
 20
820.90584047525238
 40
1.7254760742187498
  0
TEXT
  8
_1-d_
 62
    4
 10
281.83160905377872
 20
821.75643146843049
 40
7.5
 41
1
 50
0
  1
900
  0
TEXT
  8
_1-d_
 62
    4
 10
339.4763021451862
 20
821.75643146843049
 40
7.5
 41
1
 50
0
  1
44
  0
TEXT
  8
_1-d_
 62
    4
 10
227.42724429947575
 20
821.75643146843049
 40
7.5
 41
1
 50
0
  1
44
  0
CIRCLE
  8
_1-d_
  6
CONTINUOUS
 62
   18
 10
213.4333148518042
 20
785.63584049302335
 40
1.7254760742187498
  0
LINE
  8
_1-d_
  6
CONTINUOUS
 62
   18
 10
233.43331485180425
 20
785.63584049302335
 11
207.43331487415594
 21
785.63584049302335
  0
CIRCLE
  8
_1-d_
  6
CONTINUOUS
 62
   18
 10
213.4333148518042
 20
796.13584049302108
 40
1.7254760742187498
  0
LINE
  8
_1-d_
  6
CONTINUOUS
 62
   18
 10
233.43331485180425
 20
796.13584049302108
 11
207.43331487415603
 21
796.13584049302108
  0
CIRCLE
  8
_1-d_
  6
CONTINUOUS
 62
   18
 10
213.4333148518042
 20
791.43584049302217
 40
1.7254760742187498
  0
LINE
  8
_1-d_
  6
CONTINUOUS
 62
   18
 10
233.43331485180425
 20
791.43584049302217
 11
207.43331487415594
 21
791.43584049302217
  0
LINE
  8
_1-d_
  6
CONTINUOUS
 62
   18
 10
213.4333148518042
 20
776.63584049302199
 11
213.4333148518042
 21
805.13584049302199
  0
TEXT
  8
_1-d_
 62
    4
 10
212.87505232471722
 20
798.90122328310702
 40
7.5
 41
1
 50
90
  1
47
  0
TEXT
  8
_1-d_
 62
    4
 10
212.80294533732803
 20
775.89909430594321
 40
7.5
 41
1
 50
90
  1
58
  0
TEXT
  8
_1-d_
 62
    4
 10
271.79120706908373
 20
710.32961544989212
 40
7.5
 41
1
 50
90
  1
1,011
  0
LINE
  8
_1-d_
  6
CONTINUOUS
 62
   18
 10
238.20331483403595
 20
800.90584047525249
 11
238.20331483403595
 21
826.90584045290063
  0
LINE
  8
_1-d_
  6
CONTINUOUS
 62
   18
 10
337.00331483403477
 20
800.90584047525249
 11
337.00331483403477
 21
826.90584045290063
  0
LINE
  8
_1-d_
  6
CONTINUOUS
 62
   18
 10
157.5333148518049
 20
569.44170516598899
 11
157.5333148518049
 21
551.84170516598897
  0
LINE
  8
_1-d_
  6
CONTINUOUS
 62
   18
 10
157.5333148518049
 20
551.84170516598897
 11
157.5333148518049
 21
547.0717051837587
  0
CIRCLE
  8
_1-d_
  6
CONTINUOUS
 62
   18
 10
157.5333148518049
 20
551.84170516598897
 40
1.7254760742187498
  0
CIRCLE
  8
_1-d_
  6
CONTINUOUS
 62
   18
 10
147.5333148518047
 20
551.84170516598897
 40
1.7254760742187498
  0
LINE
  8
_1-d_
  6
CONTINUOUS
 62
   18
 10
178.96331486957445
 20
551.84170516598897
 11
141.53331487415645
 21
551.84170516598897
  0
TEXT
  8
_1-d_
 62
    4
 10
156.81007061850175
 20
600.0556770816836
 40
7.5
 41
1
 50
90
  1
538
  0
TEXT
  8
_1-d_
 62
    4
 10
157.23331485180483
 20
653.71670516598897
 40
7.5
 41
1
 50
90
  1
538
  0
LINE
  8
_1-d_
  6
CONTINUOUS
 62
   18
 10
157.5333148518049
 20
740.44170516598899
 11
157.5333148518049
 21
683.44170516598899
  0
LINE
  8
_1-d_
  6
CONTINUOUS
 62
   18
 10
157.5333148518049
 20
683.44170516598899
 11
157.5333148518049
 21
569.44170516598899
  0
TEXT
  8
_1-d_
 62
    4
 10
173.4679320617189
 20
785.22979891152386
 40
7.5
 41
1
 50
0
  1
47
  0
CIRCLE
  8
_1-d_
  6
CONTINUOUS
 62
   18
 10
194.23331485180273
 20
794.61170514821833
 40
1.7254760742187498
  0
LINE
  8
_1-d_
  6
CONTINUOUS
 62
   18
 10
194.23331485180273
 20
774.61170514821833
 11
194.23331485180273
 21
800.61170512586659
  0
CIRCLE
  8
_1-d_
  6
CONTINUOUS
 62
   18
 10
183.73331485180478
 20
794.61170514821833
 40
1.7254760742187498
  0
LINE
  8
_1-d_
  6
CONTINUOUS
 62
   18
 10
203.23331485180384
 20
794.61170514821833
 11
174.73331485180401
 21
794.61170514821833
  0
CIRCLE
  8
_1-d_
  6
CONTINUOUS
 62
   18
 10
194.23331485180273
 20
784.67153638443688
 40
1.7254760742187498
  0
CIRCLE
  8
_1-d_
  6
CONTINUOUS
 62
   18
 10
183.73331485180478
 20
784.67153638443665
 40
1.7254760742187498
  0
LINE
  8
_1-d_
  6
CONTINUOUS
 62
   18
 10
203.23331485180384
 20
784.67153638443688
 11
174.73331485180401
 21
784.67153638443688
  0
CIRCLE
  8
_1-d_
  6
CONTINUOUS
 62
   18
 10
188.43331485180383
 20
784.67153638443688
 40
1.7254760742187498
  0
LINE
  8
_1-d_
  6
CONTINUOUS
 62
   18
 10
188.43331485180383
 20
774.61170514821833
 11
188.43331485180383
 21
790.67153636208491
  0
TEXT
  8
_1-d_
 62
    4
 10
196.47006103888265
 20
785.30190589891299
 40
7.5
 41
1
 50
0
  1
58
  0
LINE
  8
_1-d_
  6
CONTINUOUS
 62
   18
 10
183.73331485180478
 20
774.61170514821833
 11
183.73331485180478
 21
800.61170512586648
  0
TEXT
  8
_1-d_
 62
    4
 10
183.33083750199782
 20
797.64992682607499
 40
7.5
 41
1
 50
0
  1
105
  0
CIRCLE
  8
_1-d_
  6
CONTINUOUS
 62
   18
 10
213.4333148518042
 20
769.84170516598886
 40
1.7254760742187498
  0
LINE
  8
_1-d_
  6
CONTINUOUS
 62
   18
 10
213.4333148518042
 20
774.61170514821924
 11
213.4333148518042
 21
769.84170516598886
  0
CIRCLE
  8
_1-d_
  6
CONTINUOUS
 62
   18
 10
213.4333148518042
 20
765.44170516598786
 40
1.7254760742187498
  0
LINE
  8
_1-d_
  6
CONTINUOUS
 62
   18
 10
205.7033148340343
 20
765.44170516598786
 11
218.20331483403453
 21
765.44170516598786
  0
LINE
  8
_1-d_
  6
CONTINUOUS
 62
   18
 10
199.00331483403443
 20
769.84170516598886
 11
218.20331483403453
 21
769.84170516598886
  0
TEXT
  8
_1-d_
 62
    4
 10
223.74466906805873
 20
764.25767380226523
 40
7.5
 41
1
 50
90
  1
44
  0
CIRCLE
  8
_1-d_
  6
CONTINUOUS
 62
   18
 10
157.53331485180473
 20
769.84170516598874
 40
1.7254760742187498
  0
LINE
  8
_1-d_
  6
CONTINUOUS
 62
   18
 10
157.53331485180473
 20
774.61170514821902
 11
157.53331485180473
 21
769.84170516598874
  0
CIRCLE
  8
_1-d_
  6
CONTINUOUS
 62
   18
 10
147.53331485180453
 20
769.84170516598874
 40
1.7254760742187498
  0
LINE
  8
_1-d_
  6
CONTINUOUS
 62
   18
 10
178.96331486957445
 20
769.84170516598874
 11
141.53331487415645
 21
769.84170516598874
  0
LINE
  8
_1-d_
  6
CONTINUOUS
 62
   18
 10
147.53331485180453
 20
774.61170514821902
 11
147.53331485180453
 21
769.84170516598874
  0
LINE
  8
_1-d_
  6
CONTINUOUS
 62
   18
 10
157.53331485180473
 20
769.84170516598874
 11
157.53331485180473
 21
740.44170516598899
  0
LINE
  8
_1-d_
  6
CONTINUOUS
 62
   18
 10
147.5333148518047
 20
769.84170516598874
 11
147.5333148518047
 21
547.0717051837587
  0
LINE
  8
_1-d_
  6
CONTINUOUS
 62
   18
 10
213.4333148518042
 20
760.67170518375747
 11
213.4333148518042
 21
769.84170516598886
  0
LINE
  8
_1-d_
  6
CONTINUOUS
 62
   18
 10
172.26331486957457
 20
583.04170516598822
 11
151.53331487415664
 21
583.04170516598822
  0
CIRCLE
  8
_1-d_
  6
CONTINUOUS
 62
   18
 10
157.5333148518049
 20
583.04170516598822
 40
1.7254760742187498
  0
LINE
  8
_1-d_
  6
CONTINUOUS
 62
   18
 10
172.26331486957457
 20
636.84170516598829
 11
151.53331487415664
 21
636.84170516598829
  0
CIRCLE
  8
_1-d_
  6
CONTINUOUS
 62
   18
 10
157.5333148518049
 20
636.84170516598829
 40
1.7254760742187498
  0
CIRCLE
  8
_1-d_
  6
CONTINUOUS
 62
   18
 10
157.5333148518049
 20
690.64170516598801
 40
1.7254760742187498
  0
LINE
  8
_1-d_
  6
CONTINUOUS
 62
   18
 10
172.26331486957457
 20
690.64170516598801
 11
151.53331487415664
 21
690.64170516598801
  0
TEXT
  8
_1-d_
 62
    4
 10
196.8129976371406
 20
733.74709755545791
 40
6
 41
1
 50
0
  1
43
  0
INSERT
  2
-000-_DOTSMALL
  8
_1-d_
 10
189.93331485180391
 20
733.29270611592665
 41
0.6666666666666666
 42
-0.6666666666666666
 50
-180
  0
INSERT
  2
-000-_DOTSMALL
  8
_1-d_
 10
189.93331485180391
 20
733.29270611592665
 41
0.6666666666666666
 42
0.6666666666666666
 50
180
  0
LINE
  8
_1-d_
  6
CONTINUOUS
 62
   18
 10
194.23331485180393
 20
733.29270611592665
 11
203.23331485180393
 21
733.29270611592665
  0
LINE
  8
_1-d_
  6
CONTINUOUS
 62
   18
 10
189.93331485180391
 20
733.29270611592665
 11
194.23331485180393
 21
733.29270611592665
  0
LINE
  8
_1-d_
  6
CONTINUOUS
 62
   18
 10
189.93331485180391
 20
734.66296734036132
 11
189.93331485180391
 21
733.29270611592665
  0
LINE
  8
_1-d_
  6
CONTINUOUS
 62
   18
 10
172.26331486957457
 20
737.04170516598879
 11
151.53331487415647
 21
737.04170516598879
  0
CIRCLE
  8
_1-d_
  6
CONTINUOUS
 62
   18
 10
157.53331485180473
 20
737.04170516598879
 40
1.7254760742187498
  0
TEXT
  8
_1-d_
 62
    4
 10
157.34093160614265
 20
748.09102272695816
 40
7.5
 41
1
 50
90
  1
328
  0
TEXT
  8
_1-d_
 62
    4
 10
156.95808382886628
 20
706.36061500383448
 40
7.5
 41
1
 50
90
  1
464
  0
TEXT
  8
_1-d_
 62
    4
 10
157.115853125661
 20
561.40278531810941
 40
7.5
 41
1
 50
90
  1
312
  0
TEXT
  8
_1-d_
 62
    4
 10
147.23331485180464
 20
646.46670516598897
 40
7.5
 41
1
 50
90
  1
2,180
  0
LINE
  8
_1-d_
  6
CONTINUOUS
 62
   18
 10
172.26331486957457
 20
583.04170516598822
 11
151.53331487415664
 21
583.04170516598822
  0
CIRCLE
  8
_1-d_
  6
CONTINUOUS
 62
   18
 10
157.5333148518049
 20
583.04170516598822
 40
1.7254760742187498
  0
CIRCLE
  8
_1-d_
  6
CONTINUOUS
 62
   18
 10
157.5333148518049
 20
690.64170516598801
 40
1.7254760742187498
  0
LINE
  8
_1-d_
  6
CONTINUOUS
 62
   18
 10
172.26331486957457
 20
690.64170516598801
 11
151.53331487415664
 21
690.64170516598801
  0
LINE
  8
_1-d_
  6
CONTINUOUS
 62
   18
 10
157.5333148518049
 20
695.4117051482184
 11
157.5333148518049
 21
690.64170516598801
  0
LINE
  8
_1-d_
  6
CONTINUOUS
 62
   18
 10
157.5333148518049
 20
690.64170516598801
 11
157.5333148518049
 21
685.87170518375774
  0
CIRCLE
  8
_1-d_
  6
CONTINUOUS
 62
   18
 10
157.5333148518049
 20
737.04170516598879
 40
1.7254760742187498
  0
LINE
  8
_1-d_
  6
CONTINUOUS
 62
   18
 10
172.26331486957457
 20
737.04170516598879
 11
151.53331487415664
 21
737.04170516598879
  0
LINE
  8
_1-d_
  6
CONTINUOUS
 62
   18
 10
157.5333148518049
 20
739.41170514821931
 11
157.53331485180473
 21
732.27170518375851
  0
LINE
  8
_1-d_
  6
CONTINUOUS
 62
   18
 10
420.67331481626582
 20
683.44170516598945
 11
420.67331481626582
 21
569.44170516598945
  0
LINE
  8
_1-d_
  6
CONTINUOUS
 62
   18
 10
420.67331481626582
 20
740.44170516598945
 11
420.67331481626582
 21
683.44170516598945
  0
LINE
  8
_1-d_
  6
CONTINUOUS
 62
   18
 10
420.67331481626582
 20
569.44170516598945
 11
420.67331481626582
 21
551.84170516598942
  0
LINE
  8
_1-d_
  6
CONTINUOUS
 62
   18
 10
420.67331481626582
 20
551.84170516598942
 11
420.67331481626582
 21
547.07170518375892
  0
CIRCLE
  8
_1-d_
  6
CONTINUOUS
 62
   18
 10
420.67331481626582
 20
551.84170516598942
 40
1.7254760742187498
  0
TEXT
  8
_1-d_
 62
    4
 10
394.2386976063508
 20
785.22979891152397
 40
7.5
 41
1
 50
0
  1
47
  0
CIRCLE
  8
_1-d_
  6
CONTINUOUS
 62
   18
 10
380.97331481626702
 20
794.61170514821856
 40
1.7254760742187498
  0
LINE
  8
_1-d_
  6
CONTINUOUS
 62
   18
 10
380.97331481626702
 20
774.61170514821868
 11
380.97331481626702
 21
800.61170512586682
  0
CIRCLE
  8
_1-d_
  6
CONTINUOUS
 62
   18
 10
391.47331481626492
 20
794.61170514821856
 40
1.7254760742187498
  0
LINE
  8
_1-d_
  6
CONTINUOUS
 62
   18
 10
371.97331481626588
 20
794.61170514821856
 11
400.47331481626566
 21
794.61170514821856
  0
CIRCLE
  8
_1-d_
  6
CONTINUOUS
 62
   18
 10
380.97331481626702
 20
784.67153638443699
 40
1.7254760742187498
  0
CIRCLE
  8
_1-d_
  6
CONTINUOUS
 62
   18
 10
391.47331481626492
 20
784.67153638443699
 40
1.7254760742187498
  0
LINE
  8
_1-d_
  6
CONTINUOUS
 62
   18
 10
371.97331481626588
 20
784.67153638443699
 11
400.47331481626566
 21
784.67153638443699
  0
CIRCLE
  8
_1-d_
  6
CONTINUOUS
 62
   18
 10
386.77331481626584
 20
784.67153638443699
 40
1.7254760742187498
  0
LINE
  8
_1-d_
  6
CONTINUOUS
 62
   18
 10
386.77331481626584
 20
774.61170514821868
 11
386.77331481626584
 21
790.67153636208525
  0
CIRCLE
  8
_1-d_
  6
CONTINUOUS
 62
   18
 10
420.67331481626599
 20
769.84170516598897
 40
1.7254760742187498
  0
LINE
  8
_1-d_
  6
CONTINUOUS
 62
   18
 10
420.67331481626599
 20
774.61170514821936
 11
420.67331481626599
 21
769.84170516598897
  0
TEXT
  8
_1-d_
 62
    4
 10
371.23656862918699
 20
785.30190589891322
 40
7.5
 41
1
 50
0
  1
58
  0
LINE
  8
_1-d_
  6
CONTINUOUS
 62
   18
 10
391.47331481626492
 20
774.61170514821856
 11
391.47331481626492
 21
800.61170512586682
  0
TEXT
  8
_1-d_
 62
    4
 10
380.62579216607185
 20
797.64992682607533
 40
7.5
 41
1
 50
0
  1
105
  0
CIRCLE
  8
_1-d_
  6
CONTINUOUS
 62
   18
 10
361.7733148162655
 20
769.84170516598897
 40
1.7254760742187498
  0
LINE
  8
_1-d_
  6
CONTINUOUS
 62
   18
 10
361.7733148162655
 20
774.61170514821936
 11
361.7733148162655
 21
769.84170516598897
  0
CIRCLE
  8
_1-d_
  6
CONTINUOUS
 62
   18
 10
361.7733148162655
 20
765.44170516598797
 40
1.7254760742187498
  0
LINE
  8
_1-d_
  6
CONTINUOUS
 62
   18
 10
369.50331483403539
 20
765.44170516598797
 11
357.00331483403517
 21
765.44170516598797
  0
LINE
  8
_1-d_
  6
CONTINUOUS
 62
   18
 10
376.20331483403527
 20
769.84170516598897
 11
357.00331483403517
 21
769.84170516598897
  0
TEXT
  8
_1-d_
 62
    4
 10
358.96196060001097
 20
764.25767380226534
 40
7.5
 41
1
 50
90
  1
44
  0
LINE
  8
_1-d_
  6
CONTINUOUS
 62
   18
 10
420.67331481626599
 20
769.84170516598897
 11
420.67331481626599
 21
740.44170516598945
  0
LINE
  8
_1-d_
  6
CONTINUOUS
 62
   18
 10
361.7733148162655
 20
760.67170518375769
 11
361.7733148162655
 21
769.84170516598897
  0
LINE
  8
_1-d_
  6
CONTINUOUS
 62
   18
 10
385.27331481626584
 20
735.08749977507307
 11
385.27331481626584
 21
733.71723855063851
  0
LINE
  8
_1-d_
  6
CONTINUOUS
 62
   18
 10
385.27331481626584
 20
733.71723855063851
 11
380.97331481626588
 21
733.71723855063851
  0
LINE
  8
_1-d_
  6
CONTINUOUS
 62
   18
 10
380.97331481626588
 20
733.71723855063851
 11
371.97331481626588
 21
733.71723855063851
  0
INSERT
  2
-000-_DOTSMALL
  8
_1-d_
 10
385.27331481626584
 20
733.71723855063851
 41
0.6666666666666666
 42
0.6666666666666666
 50
0
  0
INSERT
  2
-000-_DOTSMALL
  8
_1-d_
 10
385.27331481626584
 20
733.71723855063851
 41
0.6666666666666666
 42
-0.6666666666666666
 50
0
  0
TEXT
  8
_1-d_
 62
    4
 10
372.01897718138832
 20
734.11398227388577
 40
6
 41
1
 50
0
  1
43
  0
LINE
  8
_1-d_
  6
CONTINUOUS
 62
   18
 10
385.84380476295621
 20
736.63606835710016
 11
384.70282486957524
 21
737.44734197487628
  0
CIRCLE
  8
_1-d_
  6
CONTINUOUS
 62
   18
 10
420.67331481626582
 20
737.04170516598811
 40
1.7254760742187498
  0
TEXT
  8
_1-d_
 62
    4
 10
419.84980178766403
 20
747.10381615776259
 40
7.5
 41
1
 50
90
  1
328
  0
CIRCLE
  8
_1-d_
  6
CONTINUOUS
 62
   18
 10
420.67331481626582
 20
690.64170516598824
 40
1.7254760742187498
  0
CIRCLE
  8
_1-d_
  6
CONTINUOUS
 62
   18
 10
420.67331481626582
 20
636.84170516598829
 40
1.7254760742187498
  0
CIRCLE
  8
_1-d_
  6
CONTINUOUS
 62
   18
 10
420.67331481626582
 20
583.04170516598833
 40
1.7254760742187498
  0
LINE
  8
_1-d_
  6
CONTINUOUS
 62
   18
 10
385.27331481626612
 20
580.28466914107423
 11
380.97331481626622
 21
580.28466914107423
  0
LINE
  8
_1-d_
  6
CONTINUOUS
 62
   18
 10
380.97331481626622
 20
580.28466914107423
 11
371.97331481626622
 21
580.28466914107423
  0
INSERT
  2
-000-_DOTSMALL
  8
_1-d_
 10
385.27331481626612
 20
580.28466914107423
 41
0.6666666666666666
 42
0.6666666666666666
 50
0
  0
INSERT
  2
-000-_DOTSMALL
  8
_1-d_
 10
385.27331481626612
 20
580.28466914107423
 41
0.6666666666666666
 42
-0.6666666666666666
 50
0
  0
LINE
  8
_1-d_
  6
CONTINUOUS
 62
   18
 10
385.27331481626612
 20
581.6549303655089
 11
385.27331481626612
 21
580.28466914107423
  0
TEXT
  8
_1-d_
 62
    4
 10
372.38986759447027
 20
581.32397370104718
 40
6
 41
1
 50
0
  1
43
  0
TEXT
  8
_1-d_
 62
    4
 10
419.56415256157049
 20
561.71873212432433
 40
7.5
 41
1
 50
90
  1
312
  0
TEXT
  8
_1-d_
 62
    4
 10
419.24603773614888
 20
605.61857803250655
 40
7.5
 41
1
 50
90
  1
538
  0
TEXT
  8
_1-d_
 62
    4
 10
419.56415256157049
 20
659.06186870333693
 40
7.5
 41
1
 50
90
  1
538
  0
TEXT
  8
_1-d_
 62
    4
 10
419.56415256157049
 20
708.36966664368651
 40
7.5
 41
1
 50
90
  1
464
  0
LINE
  8
_1-d_
  6
CONTINUOUS
 62
   18
 10
420.67331481626582
 20
745.21170514821972
 11
420.67331481626582
 21
740.44170516598945
  0
LINE
  8
_1-d_
  6
CONTINUOUS
 62
   18
 10
420.67331481626582
 20
690.64170516598824
 11
420.67331481626582
 21
685.87170518375785
  0
LINE
  8
_1-d_
  6
CONTINUOUS
 62
   18
 10
420.67331481626582
 20
695.41170514821852
 11
420.67331481626582
 21
690.64170516598824
  0
CIRCLE
  8
_1-d_
  6
CONTINUOUS
 62
   18
 10
420.67331481626582
 20
690.64170516598824
 40
1.7254760742187498
  0
LINE
  8
_1-d_
  6
CONTINUOUS
 62
   18
 10
420.67331481626582
 20
641.61170514821868
 11
420.67331481626582
 21
636.84170516598829
  0
CIRCLE
  8
_1-d_
  6
CONTINUOUS
 62
   18
 10
420.67331481626582
 20
636.84170516598829
 40
1.7254760742187498
  0
CIRCLE
  8
_1-d_
  6
CONTINUOUS
 62
   18
 10
420.67331481626582
 20
583.04170516598833
 40
1.7254760742187498
  0
CIRCLE
  8
_1-d_
  6
CONTINUOUS
 62
   18
 10
361.7733148162655
 20
551.84170516598942
 40
1.7254760742187498
  0
CIRCLE
  8
_1-d_
  6
CONTINUOUS
 62
   18
 10
361.7733148162655
 20
554.4667051659867
 40
1.7254760742187498
  0
LINE
  8
_1-d_
  6
CONTINUOUS
 62
   18
 10
361.7733148162655
 20
554.4667051659867
 11
361.7733148162655
 21
559.23670514821708
  0
LINE
  8
_1-d_
  6
CONTINUOUS
 62
   18
 10
361.7733148162655
 20
554.4667051659867
 11
361.7733148162655
 21
547.07170518375892
  0
CIRCLE
  8
_1-d_
  6
CONTINUOUS
 62
   18
 10
361.7733148162655
 20
554.4667051659867
 40
1.7254760742187498
  0
LINE
  8
_1-d_
  6
CONTINUOUS
 62
   18
 10
375.7105040176109
 20
551.84170516598942
 11
357.00331483403517
 21
551.84170516598942
  0
LINE
  8
_1-d_
  6
CONTINUOUS
 62
   18
 10
370.39667799430799
 20
554.4667051659867
 11
357.00331483403517
 21
554.4667051659867
  0
TEXT
  8
_1-d_
 62
    4
 10
356.06121649682302
 20
549.61364033234031
 40
7.5
 41
1
 50
90
  1
25
  0
LINE
  8
_1-d_
  6
CONTINUOUS
 62
   18
 10
396.24331479849616
 20
551.84170516598942
 11
426.67331481626582
 21
551.84170516598942
  0
LINE
  8
_1-d_
  6
CONTINUOUS
 62
   18
 10
396.24331479849616
 20
769.84170516598897
 11
426.67331481626582
 21
769.84170516598897
  0
LINE
  8
_1-d_
  6
CONTINUOUS
 62
   18
 10
402.94331479849609
 20
737.04170516598811
 11
426.67331481626582
 21
737.04170516598811
  0
LINE
  8
_1-d_
  6
CONTINUOUS
 62
   18
 10
402.94331479849609
 20
690.64170516598824
 11
426.67331481626582
 21
690.64170516598824
  0
LINE
  8
_1-d_
  6
CONTINUOUS
 62
   18
 10
402.94331479849609
 20
636.84170516598829
 11
426.67331481626582
 21
636.84170516598829
  0
LINE
  8
_1-d_
  6
CONTINUOUS
 62
   18
 10
402.94331479849609
 20
583.04170516598833
 11
426.67331481626582
 21
583.04170516598833
  0
TEXT
  8
_f-0_
 62
    4
 10
1030.3829344432881
 20
67.208339527278127
 40
10.5
 41
1
 50
0
  1
S=1:3、1：5
  0
TEXT
  8
_f-0_
 62
    4
 10
1067.2442163398205
 20
56.041791624507908
 40
10.5
 41
1
 50
0
  1
1：30
  0
LINE
  8
_0-1_躯体
  6
CONTINUOUS
 62
    7
 10
357.60509182208364
 20
343.343604302031
 11
357.60509182208364
 21
238.343604302031
  0
LINE
  8
_0-1_躯体
  6
CONTINUOUS
 62
    7
 10
1044.5923997133432
 20
538.86258848786679
 11
1044.5923997133432
 21
659.83456179247355
  0
LINE
  8
_0-1_躯体
  6
CONTINUOUS
 62
    7
 10
983.1398184870875
 20
260.37296212448553
 11
983.48407710757635
 21
259.63334849033907
  0
TEXT
  8
_0-1_躯体
 62
    4
 10
1014.5679797829642
 20
553.10184331797245
 40
9
 41
1
 50
0
  1
105x45
  0
TEXT
  8
_0-d_寸法
 62
    4
 10
1068.2099390640972
 20
675.5919943148225
 40
9
 41
1
 50
0
  1
10
  0
TEXT
  8
_0-d_寸法
 62
    4
 10
1041.8813651927665
 20
675.39039990525725
 40
9
 41
1
 50
0
  1
12.5
  0
TEXT
  8
_0-d_寸法
 62
    4
 10
910.38155314150208
 20
675.21555807224684
 40
9
 41
1
 50
0
  1
14
  0
TEXT
  8
_0-d_寸法
 62
    4
 10
925.34857241733698
 20
674.97608576383357
 40
9
 41
1
 50
0
  1
18
  0
ARC
  8
_0-1_躯体
  6
CONTINUOUS
 62
    7
 10
991.59239971334307
 20
274.38143014910645
 40
5.0661735495270879
 50
9.2707244708887924
 51
170.72927552911113
  0
ARC
  8
_0-1_躯体
  6
CONTINUOUS
 62
    7
 10
951.42082683808928
 20
260.38143014910645
 40
5.0661735495270879
 50
9.2707244708887924
 51
170.72927552911113
  0
LINE
  8
_0-1_躯体
  6
CONTINUOUS
 62
    7
 10
953.79222877192399
 20
250.97058125729509
 11
967.74222877192426
 21
250.97058125729509
  0
LINE
  8
_0-1_躯体
  6
CONTINUOUS
 62
    7
 10
967.74222877192426
 20
250.97058125729509
 11
967.74222877192426
 21
252.60302806580557
  0
LINE
  8
_0-1_躯体
  6
CONTINUOUS
 62
    7
 10
967.74222877192426
 20
252.60302806580557
 11
954.34222877192417
 21
251.03494295942258
  0
LINE
  8
_0-1_躯体
  6
CONTINUOUS
 62
    7
 10
939.5923997133433
 20
250.69758848786662
 11
986.59239971334318
 21
256.19758848786671
  0
LINE
  8
_0-1_躯体
  6
CONTINUOUS
 62
    7
 10
949.59239971334307
 20
250.35756569168612
 11
988.09239971334318
 21
254.86288484062234
  0
LINE
  8
_0-1_躯体
  6
CONTINUOUS
 62
    7
 10
939.76674196758563
 20
249.2077546788849
 11
948.09239971334307
 21
250.18203377679271
  0
LINE
  8
_0-1_躯体
  6
CONTINUOUS
 62
    7
 10
939.76674196758563
 20
249.2077546788849
 11
939.5923997133433
 21
250.69758848786662
  0
LINE
  8
_0-1_躯体
  6
CONTINUOUS
 62
    7
 10
986.59239971334318
 20
256.19758848786671
 11
1034.5923997133432
 21
256.19758848786671
  0
LINE
  8
_0-1_躯体
  6
CONTINUOUS
 62
    7
 10
988.09239971334318
 20
254.69758848786674
 11
1033.0923997133432
 21
254.69758848786674
  0
LINE
  8
_0-1_躯体
  6
CONTINUOUS
 62
    7
 10
1034.5923997133432
 20
256.19758848786671
 11
1034.5923997133432
 21
246.19758848786662
  0
LINE
  8
_0-1_躯体
  6
CONTINUOUS
 62
    7
 10
1033.0923997133432
 20
254.69758848786674
 11
1033.0923997133432
 21
247.69758848786662
  0
LINE
  8
_0-1_躯体
  6
CONTINUOUS
 62
    7
 10
1031.3422287719241
 20
247.69758848786662
 11
1031.3422287719241
 21
246.19758848786662
  0
LINE
  8
_0-1_躯体
  6
CONTINUOUS
 62
    7
 10
1034.5923997133432
 20
246.19758848786662
 11
1031.3422287719241
 21
246.19758848786662
  0
LINE
  8
_0-1_躯体
  6
CONTINUOUS
 62
    7
 10
1033.0923997133432
 20
247.69758848786662
 11
1031.3422287719241
 21
247.69758848786662
  0
LINE
  8
_0-1_躯体
  6
CONTINUOUS
 62
    7
 10
988.09239971334318
 20
261.1975884878666
 11
986.59239971334318
 21
261.1975884878666
  0
LINE
  8
_0-1_躯体
  6
CONTINUOUS
 62
    7
 10
986.59239971334318
 20
256.19758848786671
 11
986.59239971334318
 21
261.1975884878666
  0
LINE
  8
_0-1_躯体
  6
CONTINUOUS
 62
    7
 10
988.09239971334318
 20
254.86288484062234
 11
988.09239971334318
 21
261.1975884878666
  0
LINE
  8
_0-1_躯体
  6
CONTINUOUS
 62
    7
 10
986.59239971334318
 20
247.69758848786662
 11
986.59239971334318
 21
256.19758848786671
  0
LINE
  8
_0-1_躯体
  6
CONTINUOUS
 62
    7
 10
988.09239971334318
 20
247.69758848786662
 11
988.09239971334318
 21
254.69758848786674
  0
LINE
  8
_0-1_躯体
  6
CONTINUOUS
 62
    7
 10
985.09239971334318
 20
247.69758848786662
 11
985.09239971334318
 21
246.19758848786662
  0
LINE
  8
_0-1_躯体
  6
CONTINUOUS
 62
    7
 10
989.59239971334318
 20
246.19758848786662
 11
985.09239971334318
 21
246.19758848786662
  0
LINE
  8
_0-1_躯体
  6
CONTINUOUS
 62
    7
 10
986.59239971334318
 20
247.69758848786662
 11
985.09239971334318
 21
247.69758848786662
  0
LINE
  8
_0-1_躯体
  6
CONTINUOUS
 62
    7
 10
989.59239971334318
 20
247.69758848786662
 11
988.09239971334318
 21
247.69758848786662
  0
LINE
  8
_0-1_躯体
  6
CONTINUOUS
 62
    7
 10
989.59239971334318
 20
247.69758848786662
 11
989.59239971334318
 21
246.19758848786662
  0
LINE
  8
_0-1_躯体
  6
CONTINUOUS
 62
    7
 10
949.59239971334307
 20
250.35756569168612
 11
949.59239971334307
 21
246.19758848786662
  0
LINE
  8
_0-1_躯体
  6
CONTINUOUS
 62
    7
 10
948.09239971334307
 20
250.18203377679271
 11
948.09239971334307
 21
247.69758848786662
  0
LINE
  8
_0-1_躯体
  6
CONTINUOUS
 62
    7
 10
939.5923997133433
 20
247.69758848786662
 11
939.5923997133433
 21
246.19758848786662
  0
LINE
  8
_0-1_躯体
  6
CONTINUOUS
 62
    7
 10
949.59239971334307
 20
246.19758848786662
 11
939.5923997133433
 21
246.19758848786662
  0
LINE
  8
_0-1_躯体
  6
CONTINUOUS
 62
    7
 10
948.09239971334307
 20
247.69758848786662
 11
939.5923997133433
 21
247.69758848786662
  0
LINE
  8
_0-1_躯体
  6
CONTINUOUS
 62
    7
 10
939.5923997133433
 20
250.69758848786662
 11
939.5923997133433
 21
249.17793037070501
  0
LINE
  8
_0-1_躯体
  6
CONTINUOUS
 62
    7
 10
939.5923997133433
 20
249.17793037070501
 11
948.09239971334307
 21
249.17793037070501
  0
LINE
  8
_0-1_躯体
  6
CONTINUOUS
 62
    7
 10
948.09239971334307
 20
250.18203377679271
 11
939.5923997133433
 21
250.69758848786662
  0
LINE
  8
_0-1_躯体
  6
CONTINUOUS
 62
    7
 10
984.09222877192406
 20
488.61258848786673
 11
982.3423997133433
 21
488.61258848786673
  0
LINE
  8
_0-1_躯体
  6
CONTINUOUS
 62
    7
 10
985.84239971334318
 20
509.06293037070498
 11
985.84239971334318
 21
497.36258848786667
  0
LINE
  8
_0-1_躯体
  6
CONTINUOUS
 62
    7
 10
987.5923997133433
 20
496.11258848786673
 11
987.09239971334307
 21
496.11258848786673
  0
LINE
  8
_0-1_躯体
  6
CONTINUOUS
 62
    7
 10
987.5923997133433
 20
493.61258848786667
 11
982.3423997133433
 21
493.61258848786667
  0
LINE
  8
_0-1_躯体
  6
CONTINUOUS
 62
    7
 10
983.88577711359687
 20
509.1368844203455
 11
983.89632972040386
 21
509.15250792890942
  0
LINE
  8
_0-1_躯体
  6
CONTINUOUS
 62
    7
 10
983.48407710757635
 20
508.42682848539437
 11
983.88577711359687
 21
509.1368844203455
  0
LINE
  8
_0-1_躯体
  6
CONTINUOUS
 62
    7
 10
983.1398184870875
 20
507.68721485124763
 11
983.48407710757635
 21
508.42682848539437
  0
LINE
  8
_0-1_躯体
  6
CONTINUOUS
 62
    7
 10
982.85515986746384
 20
506.92268113984568
 11
983.1398184870875
 21
507.68721485124763
  0
LINE
  8
_0-1_躯体
  6
CONTINUOUS
 62
    7
 10
982.63188615233389
 20
506.1380212302488
 11
982.85515986746384
 21
506.92268113984568
  0
LINE
  8
_0-1_躯体
  6
CONTINUOUS
 62
    7
 10
982.47139734168729
 20
505.33815519943266
 11
982.63188615233389
 21
506.1380212302488
  0
LINE
  8
_0-1_躯体
  6
CONTINUOUS
 62
    7
 10
982.37469975341071
 20
504.52809847177849
 11
982.47139734168729
 21
505.33815519943266
  0
LINE
  8
_0-1_躯体
  6
CONTINUOUS
 62
    7
 10
982.3423997133433
 20
503.71293037070501
 11
982.37469975341071
 21
504.52809847177849
  0
ARC
  8
_0-1_躯体
  6
CONTINUOUS
 62
    7
 10
985.09239971334318
 20
509.06293037070498
 40
0.75
 50
0
 51
90
  0
ARC
  8
_0-1_躯体
  6
CONTINUOUS
 62
    7
 10
985.13935406600569
 20
508.31293037070498
 40
1.5
 50
90
 51
145.96367646253361
  0
ARC
  8
_0-1_躯体
  6
CONTINUOUS
 62
    7
 10
987.5923997133433
 20
494.86258848786656
 40
1.25
 50
0
 51
90
  0
ARC
  8
_0-1_躯体
  6
CONTINUOUS
 62
    7
 10
987.5923997133433
 20
494.86258848786656
 40
1.25
 50
270
 51
0
  0
ARC
  8
_0-1_躯体
  6
CONTINUOUS
 62
    7
 10
987.09239971334307
 20
497.36258848786667
 40
1.25
 50
180
 51
270
  0
LINE
  8
_0-1_躯体
  6
CONTINUOUS
 62
    7
 10
985.84239971334318
 20
258.99724660502847
 11
985.84239971334318
 21
270.69758848786677
  0
LINE
  8
_0-1_躯体
  6
CONTINUOUS
 62
    7
 10
987.5923997133433
 20
274.44758848786677
 11
982.3423997133433
 21
274.44758848786677
  0
LINE
  8
_0-1_躯体
  6
CONTINUOUS
 62
    7
 10
982.3423997133433
 20
279.44758848786671
 11
982.3423997133433
 21
264.34724660502843
  0
LINE
  8
_0-1_躯体
  6
CONTINUOUS
 62
    7
 10
984.14222877192401
 20
279.44758848786671
 11
982.3423997133433
 21
279.44758848786671
  0
LINE
  8
_0-1_躯体
  6
CONTINUOUS
 62
    7
 10
987.5923997133433
 20
271.94758848786671
 11
987.09239971334307
 21
271.94758848786671
  0
LINE
  8
_0-1_躯体
  6
CONTINUOUS
 62
    7
 10
983.88577711359687
 20
258.92329255538777
 11
983.89632972040386
 21
258.90766904682397
  0
LINE
  8
_0-1_躯体
  6
CONTINUOUS
 62
    7
 10
983.48407710757635
 20
259.63334849033907
 11
983.88577711359687
 21
258.92329255538777
  0
LINE
  8
_0-1_躯体
  6
CONTINUOUS
 62
    7
 10
982.85515986746384
 20
261.13749583588776
 11
983.1398184870875
 21
260.37296212448553
  0
LINE
  8
_0-1_躯体
  6
CONTINUOUS
 62
    7
 10
982.63188615233389
 20
261.92215574548447
 11
982.85515986746384
 21
261.13749583588776
  0
LINE
  8
_0-1_躯体
  6
CONTINUOUS
 62
    7
 10
982.47139734168729
 20
262.72202177630049
 11
982.63188615233389
 21
261.92215574548447
  0
LINE
  8
_0-1_躯体
  6
CONTINUOUS
 62
    7
 10
982.37469975341071
 20
263.53207850395495
 11
982.47139734168729
 21
262.72202177630049
  0
LINE
  8
_0-1_躯体
  6
CONTINUOUS
 62
    7
 10
982.3423997133433
 20
264.34724660502843
 11
982.37469975341071
 21
263.53207850395495
  0
ARC
  8
_0-1_躯体
  6
CONTINUOUS
 62
    7
 10
985.09239971334318
 20
258.99724660502847
 40
0.75
 50
270
 51
0
  0
ARC
  8
_0-1_躯体
  6
CONTINUOUS
 62
    7
 10
985.13935406600569
 20
259.74724660502847
 40
1.4999999999999281
 50
214.03632353747111
 51
270
  0
ARC
  8
_0-1_躯体
  6
CONTINUOUS
 62
    7
 10
987.5923997133433
 20
273.1975884878666
 40
1.25
 50
270
 51
0
  0
ARC
  8
_0-1_躯体
  6
CONTINUOUS
 62
    7
 10
987.5923997133433
 20
273.1975884878666
 40
1.25
 50
0
 51
90
  0
ARC
  8
_0-1_躯体
  6
CONTINUOUS
 62
    7
 10
987.09239971334307
 20
270.69758848786677
 40
1.25
 50
90
 51
180
  0
LINE
  8
_0-0_本体
  6
CONTINUOUS
 62
   18
 10
984.5923997133433
 20
511.86258848786673
 11
941.59239971334318
 21
511.86258848786673
  0
ARC
  8
_0-0_本体
  6
CONTINUOUS
 62
   18
 10
941.59239971334318
 20
513.86258848786667
 40
2.0000000000000036
 50
180.00000000000031
 51
270.00000000000034
  0
LINE
  8
_0-0_本体
  6
CONTINUOUS
 62
   18
 10
939.5923997133433
 20
513.86258848786667
 11
939.5923997133433
 21
538.86258848786679
  0
ARC
  8
_0-0_本体
  6
CONTINUOUS
 62
   18
 10
941.59239971334318
 20
538.86258848786679
 40
1.9999999999999762
 50
89.99999999999892
 51
179.99999999999892
  0
LINE
  8
_0-0_本体
  6
CONTINUOUS
 62
   18
 10
941.59239971334318
 20
540.86258848786656
 11
1042.5923997133432
 21
540.86258848786656
  0
ARC
  8
_0-0_本体
  6
CONTINUOUS
 62
   18
 10
1042.5923997133432
 20
538.86258848786679
 40
1.9999999999999762
 50
0.0000000000010559
 51
90.000000000001066
  0
LINE
  8
_0-0_本体
  6
CONTINUOUS
 62
   18
 10
1044.5923997133432
 20
538.86258848786679
 11
1044.5923997133432
 21
526.36258848786656
  0
LINE
  8
_0-0_本体
  6
CONTINUOUS
 62
   18
 10
1044.5923997133432
 20
526.36258848786656
 11
1044.5923997133432
 21
519.81258848786672
  0
LINE
  8
_0-0_本体
  6
CONTINUOUS
 62
   18
 10
1044.5923997133432
 20
519.81258848786672
 11
1044.5923997133432
 21
513.86258848786667
  0
LINE
  8
_0-0_本体
  6
CONTINUOUS
 62
   18
 10
1044.5923997133432
 20
513.86258848786667
 11
1044.5923997133432
 21
496.86258848786673
  0
LINE
  8
_0-0_本体
  6
CONTINUOUS
 62
   18
 10
1044.5923997133432
 20
496.86258848786673
 11
1034.5923997133432
 21
496.86258848786673
  0
LINE
  8
_0-0_本体
  6
CONTINUOUS
 62
   18
 10
1034.5923997133432
 20
496.86258848786673
 11
1030.5422287719241
 21
496.86258848786673
  0
LINE
  8
_0-0_本体
  6
CONTINUOUS
 62
   18
 10
1030.5422287719241
 20
496.86258848786673
 11
986.59239971334318
 21
496.86258848786673
  0
LINE
  8
_0-0_本体
  6
CONTINUOUS
 62
   18
 10
986.59239971334318
 20
496.86258848786673
 11
986.59239971334318
 21
503.05208848786651
  0
LINE
  8
_0-0_本体
  6
CONTINUOUS
 62
   18
 10
986.59239971334318
 20
503.05208848786651
 11
986.59239971334318
 21
506.86258848786656
  0
LINE
  8
_0-0_本体
  6
CONTINUOUS
 62
   18
 10
986.59239971334318
 20
506.86258848786656
 11
986.59239971334318
 21
511.86258848786673
  0
LINE
  8
_0-0_本体
  6
CONTINUOUS
 62
   18
 10
986.59239971334318
 20
511.86258848786673
 11
984.5923997133433
 21
511.86258848786673
  0
LINE
  8
_0-0_本体
  6
CONTINUOUS
 62
   18
 10
939.5923997133433
 20
506.03416136312046
 11
939.5923997133433
 21
449.06258848786661
  0
LINE
  8
_0-0_本体
  6
CONTINUOUS
 62
   18
 10
942.42082683808928
 20
508.86258848786673
 11
939.5923997133433
 21
506.03416136312046
  0
LINE
  8
_0-0_本体
  6
CONTINUOUS
 62
   18
 10
942.42082683808928
 20
508.86258848786673
 11
981.5923997133433
 21
506.86258848786656
  0
LINE
  8
_0-0_本体
  6
CONTINUOUS
 62
   18
 10
981.5923997133433
 20
506.86258848786656
 11
981.5923997133433
 21
487.86258848786673
  0
LINE
  8
_0-0_本体
  6
CONTINUOUS
 62
   18
 10
984.5923997133433
 20
487.86258848786673
 11
981.5923997133433
 21
487.86258848786673
  0
LINE
  8
_0-0_本体
  6
CONTINUOUS
 62
   18
 10
984.5923997133433
 20
492.86258848786667
 11
984.5923997133433
 21
487.86258848786673
  0
LINE
  8
_0-0_本体
  6
CONTINUOUS
 62
    7
 10
982.3423997133433
 20
488.61258848786673
 11
982.3423997133433
 21
503.71293037070501
  0
LINE
  8
_0-0_本体
  6
CONTINUOUS
 62
   18
 10
981.5923997133433
 20
261.1975884878666
 11
942.42082683808928
 21
261.1975884878666
  0
LINE
  8
_0-0_本体
  6
CONTINUOUS
 62
   18
 10
939.5923997133433
 20
264.02601561261292
 11
939.5923997133433
 21
318.99758848786666
  0
LINE
  8
_0-0_本体
  6
CONTINUOUS
 62
   18
 10
981.5923997133433
 20
261.1975884878666
 11
981.5923997133433
 21
280.19758848786671
  0
LINE
  8
_0-0_本体
  6
CONTINUOUS
 62
   18
 10
984.5923997133433
 20
280.19758848786671
 11
981.5923997133433
 21
280.19758848786671
  0
LINE
  8
_0-0_本体
  6
CONTINUOUS
 62
   18
 10
984.5923997133433
 20
275.19758848786677
 11
984.5923997133433
 21
280.19758848786671
  0
LINE
  8
_0-0_本体
  6
CONTINUOUS
 62
   18
 10
942.42082683808928
 20
261.1975884878666
 11
939.5923997133433
 21
264.02601561261292
  0
LINE
  8
_0-0_本体
  6
CONTINUOUS
 62
   18
 10
986.59239971334318
 20
271.19758848786671
 11
1042.5923997133432
 21
271.19758848786671
  0
ARC
  8
_0-0_本体
  6
CONTINUOUS
 62
   18
 10
1042.5923997133432
 20
269.19758848786677
 40
2.0000000000000142
 50
0
 51
90
  0
LINE
  8
_0-0_本体
  6
CONTINUOUS
 62
   18
 10
1044.5923997133432
 20
269.19758848786677
 11
1044.5923997133432
 21
246.19758848786662
  0
LINE
  8
_0-0_本体
  6
CONTINUOUS
 62
   18
 10
1044.5923997133432
 20
246.19758848786662
 11
1034.5923997133432
 21
246.19758848786662
  0
LINE
  8
_0-0_本体
  6
CONTINUOUS
 62
   18
 10
1034.5923997133432
 20
246.19758848786662
 11
1034.5923997133432
 21
256.19758848786671
  0
LINE
  8
_0-0_本体
  6
CONTINUOUS
 62
   18
 10
1034.5923997133432
 20
256.19758848786671
 11
988.09239971334318
 21
256.19758848786671
  0
LINE
  8
_0-0_本体
  6
CONTINUOUS
 62
   18
 10
988.09239971334318
 20
256.19758848786671
 11
988.09239971334318
 21
261.1975884878666
  0
LINE
  8
_0-0_本体
  6
CONTINUOUS
 62
   18
 10
988.09239971334318
 20
261.1975884878666
 11
986.59239971334318
 21
261.1975884878666
  0
LINE
  8
_0-0_本体
  6
CONTINUOUS
 62
   18
 10
986.59239971334318
 20
261.1975884878666
 11
986.59239971334318
 21
271.19758848786671
  0
LINE
  8
_0-7_ハッチ
  6
CONTINUOUS
 62
   18
 10
939.5923997133433
 20
532.04028339824436
 11
948.41470480296562
 21
540.86258848786656
  0
LINE
  8
_0-7_ハッチ
  6
CONTINUOUS
 62
   18
 10
946.35547316617283
 20
511.86258848786673
 11
975.35547316617306
 21
540.86258848786656
  0
LINE
  8
_0-7_ハッチ
  6
CONTINUOUS
 62
   18
 10
973.29624152938061
 20
511.86258848786673
 11
1002.2962415293805
 21
540.86258848786656
  0
LINE
  8
_0-7_ハッチ
  6
CONTINUOUS
 62
   18
 10
986.59239971334318
 20
498.21797830862187
 11
1029.237009892588
 21
540.86258848786656
  0
LINE
  8
_0-7_ハッチ
  6
CONTINUOUS
 62
   18
 10
1012.1777782557955
 20
496.86258848786673
 11
1044.5923997133432
 21
529.2772099454146
  0
LINE
  8
_0-7_ハッチ
  6
CONTINUOUS
 62
   18
 10
1039.1185466190029
 20
496.86258848786673
 11
1044.5923997133432
 21
502.3364415822071
  0
LINE
  8
_0-7_ハッチ
  6
CONTINUOUS
 62
   18
 10
988.09239971334318
 20
257.25106303975491
 11
1002.0389251614553
 21
271.19758848786671
  0
LINE
  8
_0-7_ハッチ
  6
CONTINUOUS
 62
   18
 10
1013.9796935246624
 20
256.19758848786671
 11
1028.9796935246627
 21
271.19758848786671
  0
LINE
  8
_0-7_ハッチ
  6
CONTINUOUS
 62
   18
 10
1034.5923997133432
 20
249.86952631334012
 11
1044.5923997133432
 21
259.86952631333997
  0
TEXT
  8
_0-d_寸法
 62
    4
 10
982.52506379788326
 20
674.63703115556632
 40
9
 41
1
 50
0
  1
105
  0
TEXT
  8
_0-d_寸法
 62
    4
 10
1133.9671963228413
 20
541.4522397388132
 40
9
 41
1
 50
90
  1
10
  0
LINE
  8
_0-d_寸法
  6
CONTINUOUS
 62
   18
 10
1083.5423997133435
 20
550.86258848786679
 11
1142.5423996909915
 21
550.86258848786679
  0
LINE
  8
_0-d_寸法
  6
CONTINUOUS
 62
   18
 10
1116.3123996955737
 20
540.86258848786656
 11
1142.5423996909915
 21
540.86258848786656
  0
LINE
  8
_0-d_寸法
  6
CONTINUOUS
 62
   18
 10
1136.5423997133432
 20
555.63258847009695
 11
1136.5423997133432
 21
550.86258848786679
  0
LINE
  8
_0-d_寸法
  6
CONTINUOUS
 62
   18
 10
1136.5423997133432
 20
540.86258848786656
 11
1136.5423997133432
 21
246.19758848786662
  0
CIRCLE
  8
_0-d_寸法
  6
CONTINUOUS
 62
   18
 10
1136.5423997133432
 20
550.86258848786679
 40
1.7254760742187489
  0
CIRCLE
  8
_0-d_寸法
  6
CONTINUOUS
 62
   18
 10
1136.5423997133432
 20
540.86258848786656
 40
1.7254760742187489
  0
LINE
  8
_0-d_寸法
  6
CONTINUOUS
 62
   18
 10
1136.5423997133432
 20
550.86258848786679
 11
1136.5423997133432
 21
540.86258848786656
  0
LINE
  8
_0-d_寸法
  6
CONTINUOUS
 62
   18
 10
1116.3123997133432
 20
540.86258848786656
 11
1084.0423997133432
 21
540.86258848786656
  0
CIRCLE
  8
_0-d_寸法
  6
CONTINUOUS
 62
   18
 10
1074.081641485297
 20
271.19758848786671
 40
1.7254760742187489
  0
LINE
  8
_0-d_寸法
  6
CONTINUOUS
 62
   18
 10
1074.081641485297
 20
266.20258848786676
 11
1074.081641485297
 21
242.02497437502282
  0
CIRCLE
  8
_0-d_寸法
  6
CONTINUOUS
 62
   18
 10
1074.081641485297
 20
246.19758848786662
 40
1.7254760742187489
  0
LINE
  8
_0-d_寸法
  6
CONTINUOUS
 62
   18
 10
1049.5423997133432
 20
246.19758848786662
 11
1142.5423996909915
 21
246.19758848786662
  0
LINE
  8
_0-d_寸法
  6
CONTINUOUS
 62
   18
 10
1136.5423997133432
 20
246.19758848786662
 11
1136.5423997133432
 21
241.42758850563646
  0
CIRCLE
  8
_0-d_寸法
  6
CONTINUOUS
 62
   18
 10
1136.5423997133432
 20
246.19758848786662
 40
1.7254760742187489
  0
TEXT
  8
_0-d_寸法
 62
    4
 10
1118.994593052925
 20
513.86028987394764
 40
10.500000000000171
 41
1
 50
90
  1
44
  0
TEXT
  8
_0-d_寸法
 62
    4
 10
914.8757793176984
 20
453.09739842576414
 40
9
 41
1
 50
0
  1
40
  0
LINE
  8
_0-d_寸法
  6
CONTINUOUS
 62
   18
 10
899.59239971334341
 20
515.81258848786661
 11
899.59239971334341
 21
444.81258851021846
  0
LINE
  8
_0-d_寸法
  6
CONTINUOUS
 62
   18
 10
939.5923997133433
 20
456.04258850563633
 11
939.5923997133433
 21
444.81258851021846
  0
LINE
  8
_0-d_寸法
  6
CONTINUOUS
 62
   18
 10
894.82239973111302
 20
450.81258848786672
 11
899.59239971334341
 21
450.81258848786672
  0
LINE
  8
_0-d_寸法
  6
CONTINUOUS
 62
   18
 10
939.5923997133433
 20
450.81258848786672
 11
1044.5923997133432
 21
450.81258848786672
  0
CIRCLE
  8
_0-d_寸法
  6
CONTINUOUS
 62
   18
 10
899.59239971334341
 20
450.81258848786672
 40
1.7254760742187489
  0
CIRCLE
  8
_0-d_寸法
  6
CONTINUOUS
 62
   18
 10
939.5923997133433
 20
450.81258848786672
 40
1.7254760742187489
  0
LINE
  8
_0-d_寸法
  6
CONTINUOUS
 62
   18
 10
899.59239971334341
 20
450.81258848786672
 11
939.5923997133433
 21
450.81258848786672
  0
LINE
  8
_0-d_寸法
  6
CONTINUOUS
 62
   18
 10
1044.5923997133432
 20
451.04258850563639
 11
1044.5923997133432
 21
444.81258851021846
  0
CIRCLE
  8
_0-d_寸法
  6
CONTINUOUS
 62
   18
 10
1044.5923997133432
 20
450.81258848786672
 40
1.7254760742187489
  0
LINE
  8
_0-7_ハッチ
  6
CONTINUOUS
 62
   18
 10
940.57069449428013
 20
549.88429370692995
 11
941.54898927521697
 21
550.86258848786679
  0
LINE
  8
_0-7_ハッチ
  6
CONTINUOUS
 62
   18
 10
948.22639167649766
 20
550.46892307728217
 11
948.62005708708227
 21
550.86258848786679
  0
LINE
  8
_0-7_ハッチ
  6
CONTINUOUS
 62
   18
 10
942.1108295484064
 20
548.59600163630989
 11
944.37741639996295
 21
550.86258848786679
  0
LINE
  8
_0-7_ハッチ
  6
CONTINUOUS
 62
   18
 10
941.36650662084151
 20
549.26589227111822
 11
942.96320283758996
 21
550.86258848786679
  0
LINE
  8
_0-7_ハッチ
  6
CONTINUOUS
 62
   18
 10
942.5923997133433
 20
546.2491446765008
 11
947.20584352470928
 21
550.86258848786679
  0
LINE
  8
_0-7_ハッチ
  6
CONTINUOUS
 62
   18
 10
948.00601810720093
 20
540.86258023987261
 11
942.5923997133433
 21
546.27619863373025
  0
LINE
  8
_0-7_ハッチ
  6
CONTINUOUS
 62
   18
 10
942.5923997133433
 20
547.6633582388738
 11
945.79162996233629
 21
550.86258848786679
  0
LINE
  8
_0-7_ハッチ
  6
CONTINUOUS
 62
   18
 10
942.5923997133433
 20
544.83493111412781
 11
948.22639167649766
 21
550.46892307728217
  0
LINE
  8
_0-7_ハッチ
  6
CONTINUOUS
 62
   18
 10
946.59180454482794
 20
540.86258023987261
 11
942.5923997133433
 21
544.86198507135703
  0
LINE
  8
_0-7_ハッチ
  6
CONTINUOUS
 62
   18
 10
945.17759098245494
 20
540.86258023987261
 11
942.5923997133433
 21
543.44777150898403
  0
LINE
  8
_0-7_ハッチ
  6
CONTINUOUS
 62
   18
 10
943.76337742008161
 20
540.86258023987261
 11
942.67788444271525
 21
541.94807321723874
  0
LINE
  8
_0-7_ハッチ
  6
CONTINUOUS
 62
   18
 10
942.34916385770862
 20
540.86258023987261
 11
941.97077766152893
 21
541.2409664360523
  0
LINE
  8
_0-7_ハッチ
  6
CONTINUOUS
 62
   18
 10
942.5923997133433
 20
543.42071755175471
 11
950.03427064945561
 21
550.86258848786679
  0
LINE
  8
_0-7_ハッチ
  6
CONTINUOUS
 62
   18
 10
942.5923997133433
 20
542.00650398938149
 11
951.4484842118286
 21
550.86258848786679
  0
LINE
  8
_0-7_ハッチ
  6
CONTINUOUS
 62
   18
 10
951.5923997133433
 20
544.34726644559566
 11
945.07707767107252
 21
550.86258848786679
  0
LINE
  8
_0-7_ハッチ
  6
CONTINUOUS
 62
   18
 10
951.5923997133433
 20
545.76148000796866
 11
946.49129123344551
 21
550.86258848786679
  0
LINE
  8
_0-7_ハッチ
  6
CONTINUOUS
 62
   18
 10
951.5923997133433
 20
541.51883932084957
 11
942.24865054632619
 21
550.86258848786679
  0
LINE
  8
_0-7_ハッチ
  6
CONTINUOUS
 62
   18
 10
944.27690308858053
 20
540.86258023987261
 11
951.5923997133433
 21
548.17807686463516
  0
LINE
  8
_0-7_ハッチ
  6
CONTINUOUS
 62
   18
 10
942.86268952620753
 20
540.86258023987261
 11
951.5923997133433
 21
549.59229042700849
  0
LINE
  8
_0-7_ハッチ
  6
CONTINUOUS
 62
   18
 10
945.69111665095386
 20
540.86258023987261
 11
951.5923997133433
 21
546.76386330226217
  0
LINE
  8
_0-7_ハッチ
  6
CONTINUOUS
 62
   18
 10
947.10533021332651
 20
540.86258023987261
 11
951.5923997133433
 21
545.34964973988917
  0
LINE
  8
_0-7_ハッチ
  6
CONTINUOUS
 62
   18
 10
949.42022342157998
 20
540.86258848786667
 11
942.5923997133433
 21
547.69041219610335
  0
LINE
  8
_0-7_ハッチ
  6
CONTINUOUS
 62
   18
 10
950.83443698395297
 20
540.86258848786667
 11
940.8344369839532
 21
550.86258848786679
  0
LINE
  8
_0-7_ハッチ
  6
CONTINUOUS
 62
   18
 10
951.5923997133433
 20
550.00412069508764
 11
950.73393192056449
 21
550.86258848786679
  0
LINE
  8
_0-7_ハッチ
  6
CONTINUOUS
 62
   18
 10
951.5923997133433
 20
548.58990713271464
 11
949.31971835819115
 21
550.86258848786679
  0
LINE
  8
_0-7_ハッチ
  6
CONTINUOUS
 62
   18
 10
951.5923997133433
 20
547.17569357034165
 11
947.9055047958185
 21
550.86258848786679
  0
LINE
  8
_0-7_ハッチ
  6
CONTINUOUS
 62
   18
 10
951.5923997133433
 20
542.93305288322267
 11
943.66286410869918
 21
550.86258848786679
  0
LINE
  8
_0-7_ハッチ
  6
CONTINUOUS
 62
   18
 10
951.34797914844046
 20
540.86258848786667
 11
951.5923997133433
 21
541.10700905276951
  0
LINE
  8
_0-7_ハッチ
  6
CONTINUOUS
 62
   18
 10
961.95457261824447
 20
540.86258023987261
 11
971.95458086623819
 21
550.86258848786679
  0
LINE
  8
_0-7_ハッチ
  6
CONTINUOUS
 62
   18
 10
964.07589296180379
 20
540.86258023987261
 11
974.07590120979819
 21
550.86258848786679
  0
LINE
  8
_0-7_ハッチ
  6
CONTINUOUS
 62
   18
 10
966.19721330536345
 20
540.86258023987261
 11
976.19722155335751
 21
550.86258848786679
  0
LINE
  8
_0-7_ハッチ
  6
CONTINUOUS
 62
   18
 10
968.31853364892311
 20
540.86258023987261
 11
978.31854189691717
 21
550.86258848786679
  0
LINE
  8
_0-7_ハッチ
  6
CONTINUOUS
 62
   18
 10
970.43985399248277
 20
540.86258023987261
 11
980.43986224047683
 21
550.86258848786679
  0
LINE
  8
_0-7_ハッチ
  6
CONTINUOUS
 62
   18
 10
961.95457261824447
 20
550.86258848786679
 11
971.95457261824424
 21
540.86258848786667
  0
LINE
  8
_0-7_ハッチ
  6
CONTINUOUS
 62
   18
 10
964.07589296180379
 20
550.86258848786679
 11
974.07589296180424
 21
540.86258848786667
  0
LINE
  8
_0-7_ハッチ
  6
CONTINUOUS
 62
   18
 10
966.19721330536345
 20
550.86258848786679
 11
976.19721330536356
 21
540.86258848786667
  0
LINE
  8
_0-7_ハッチ
  6
CONTINUOUS
 62
   18
 10
968.31853364892311
 20
550.86258848786679
 11
978.31853364892322
 21
540.86258848786667
  0
LINE
  8
_0-7_ハッチ
  6
CONTINUOUS
 62
   18
 10
970.43985399248277
 20
550.86258848786679
 11
980.43985399248288
 21
540.86258848786667
  0
LINE
  8
_0-7_ハッチ
  6
CONTINUOUS
 62
   18
 10
972.56117433604243
 20
540.86258023987261
 11
982.56118258403649
 21
550.86258848786679
  0
LINE
  8
_0-7_ハッチ
  6
CONTINUOUS
 62
   18
 10
972.56117433604243
 20
550.86258848786679
 11
982.56118258403649
 21
540.86258023987261
  0
LINE
  8
_0-7_ハッチ
  6
CONTINUOUS
 62
   18
 10
974.68249467960209
 20
550.86258848786679
 11
984.68250292759615
 21
540.86258023987261
  0
LINE
  8
_0-7_ハッチ
  6
CONTINUOUS
 62
   18
 10
974.68249467960209
 20
540.86258023987261
 11
984.68250292759615
 21
550.86258848786679
  0
LINE
  8
_0-7_ハッチ
  6
CONTINUOUS
 62
   18
 10
976.80381502316175
 20
540.86258023987261
 11
986.80382327115581
 21
550.86258848786679
  0
LINE
  8
_0-7_ハッチ
  6
CONTINUOUS
 62
   18
 10
978.92513536672141
 20
540.86258023987261
 11
988.92514361471547
 21
550.86258848786679
  0
LINE
  8
_0-7_ハッチ
  6
CONTINUOUS
 62
   18
 10
981.04645571028107
 20
540.86258023987261
 11
991.04646395827513
 21
550.86258848786679
  0
LINE
  8
_0-7_ハッチ
  6
CONTINUOUS
 62
   18
 10
983.16777605384038
 20
540.86258023987261
 11
993.16778430183479
 21
550.86258848786679
  0
LINE
  8
_0-7_ハッチ
  6
CONTINUOUS
 62
   18
 10
985.28909639740004
 20
540.86258023987261
 11
995.2891046453941
 21
550.86258848786679
  0
LINE
  8
_0-7_ハッチ
  6
CONTINUOUS
 62
   18
 10
976.80381502316175
 20
550.86258848786679
 11
986.80381502316152
 21
540.86258848786667
  0
LINE
  8
_0-7_ハッチ
  6
CONTINUOUS
 62
   18
 10
978.92513536672141
 20
550.86258848786679
 11
988.92513536672152
 21
540.86258848786667
  0
LINE
  8
_0-7_ハッチ
  6
CONTINUOUS
 62
   18
 10
981.04645571028107
 20
550.86258848786679
 11
991.04645571028118
 21
540.86258848786667
  0
LINE
  8
_0-7_ハッチ
  6
CONTINUOUS
 62
   18
 10
983.16777605384038
 20
550.86258848786679
 11
993.1677760538405
 21
540.86258848786667
  0
LINE
  8
_0-7_ハッチ
  6
CONTINUOUS
 62
   18
 10
985.28909639740004
 20
550.86258848786679
 11
995.28909639740016
 21
540.86258848786667
  0
LINE
  8
_0-7_ハッチ
  6
CONTINUOUS
 62
   18
 10
987.4104167409597
 20
540.86258023987261
 11
997.41042498895376
 21
550.86258848786679
  0
LINE
  8
_0-7_ハッチ
  6
CONTINUOUS
 62
   18
 10
987.4104167409597
 20
550.86258848786679
 11
997.41042498895376
 21
540.86258023987261
  0
LINE
  8
_0-7_ハッチ
  6
CONTINUOUS
 62
   18
 10
989.53173708451936
 20
550.86258848786679
 11
999.53174533251342
 21
540.86258023987261
  0
LINE
  8
_0-7_ハッチ
  6
CONTINUOUS
 62
   18
 10
989.53173708451936
 20
540.86258023987261
 11
999.53174533251342
 21
550.86258848786679
  0
LINE
  8
_0-7_ハッチ
  6
CONTINUOUS
 62
   18
 10
991.65305742807902
 20
540.86258023987261
 11
1001.6530656760731
 21
550.86258848786679
  0
LINE
  8
_0-7_ハッチ
  6
CONTINUOUS
 62
   18
 10
993.77437777163868
 20
540.86258023987261
 11
1003.7743860196327
 21
550.86258848786679
  0
LINE
  8
_0-7_ハッチ
  6
CONTINUOUS
 62
   18
 10
995.89569811519834
 20
540.86258023987261
 11
1005.8957063631924
 21
550.86258848786679
  0
LINE
  8
_0-7_ハッチ
  6
CONTINUOUS
 62
   18
 10
998.017018458758
 20
540.86258023987261
 11
1008.0170267067521
 21
550.86258848786679
  0
LINE
  8
_0-7_ハッチ
  6
CONTINUOUS
 62
   18
 10
1000.1383388023177
 20
540.86258023987261
 11
1010.1383470503117
 21
550.86258848786679
  0
LINE
  8
_0-7_ハッチ
  6
CONTINUOUS
 62
   18
 10
991.65305742807902
 20
550.86258848786679
 11
1001.6530574280791
 21
540.86258848786667
  0
LINE
  8
_0-7_ハッチ
  6
CONTINUOUS
 62
   18
 10
993.77437777163868
 20
550.86258848786679
 11
1003.7743777716388
 21
540.86258848786667
  0
LINE
  8
_0-7_ハッチ
  6
CONTINUOUS
 62
   18
 10
995.89569811519834
 20
550.86258848786679
 11
1005.8956981151985
 21
540.86258848786667
  0
LINE
  8
_0-7_ハッチ
  6
CONTINUOUS
 62
   18
 10
998.017018458758
 20
550.86258848786679
 11
1008.0170184587581
 21
540.86258848786667
  0
LINE
  8
_0-7_ハッチ
  6
CONTINUOUS
 62
   18
 10
1000.1383388023177
 20
550.86258848786679
 11
1010.1383388023174
 21
540.86258848786667
  0
LINE
  8
_0-7_ハッチ
  6
CONTINUOUS
 62
   18
 10
1002.259659145877
 20
540.86258023987261
 11
1012.2596673938714
 21
550.86258848786679
  0
LINE
  8
_0-7_ハッチ
  6
CONTINUOUS
 62
   18
 10
1002.259659145877
 20
550.86258848786679
 11
1012.2596673938714
 21
540.86258023987261
  0
LINE
  8
_0-7_ハッチ
  6
CONTINUOUS
 62
   18
 10
1004.380979489437
 20
550.86258848786679
 11
1014.380987737431
 21
540.86258023987261
  0
LINE
  8
_0-7_ハッチ
  6
CONTINUOUS
 62
   18
 10
1004.380979489437
 20
540.86258023987261
 11
1014.380987737431
 21
550.86258848786679
  0
LINE
  8
_0-7_ハッチ
  6
CONTINUOUS
 62
   18
 10
1006.5022998329963
 20
540.86258023987261
 11
1016.5023080809907
 21
550.86258848786679
  0
LINE
  8
_0-7_ハッチ
  6
CONTINUOUS
 62
   18
 10
1008.6236201765563
 20
540.86258023987261
 11
1018.6236284245504
 21
550.86258848786679
  0
LINE
  8
_0-7_ハッチ
  6
CONTINUOUS
 62
   18
 10
1010.7449405201156
 20
540.86258023987261
 11
1020.74494876811
 21
550.86258848786679
  0
LINE
  8
_0-7_ハッチ
  6
CONTINUOUS
 62
   18
 10
1012.8662608636753
 20
540.86258023987261
 11
1022.8662691116693
 21
550.86258848786679
  0
LINE
  8
_0-7_ハッチ
  6
CONTINUOUS
 62
   18
 10
1014.9875812072349
 20
540.86258023987261
 11
1024.987589455229
 21
550.86258848786679
  0
LINE
  8
_0-7_ハッチ
  6
CONTINUOUS
 62
   18
 10
1006.5022998329963
 20
550.86258848786679
 11
1016.5022998329964
 21
540.86258848786667
  0
LINE
  8
_0-7_ハッチ
  6
CONTINUOUS
 62
   18
 10
1008.6236201765563
 20
550.86258848786679
 11
1018.6236201765561
 21
540.86258848786667
  0
LINE
  8
_0-7_ハッチ
  6
CONTINUOUS
 62
   18
 10
1010.7449405201156
 20
550.86258848786679
 11
1020.7449405201161
 21
540.86258848786667
  0
LINE
  8
_0-7_ハッチ
  6
CONTINUOUS
 62
   18
 10
1012.8662608636753
 20
550.86258848786679
 11
1022.8662608636754
 21
540.86258848786667
  0
LINE
  8
_0-7_ハッチ
  6
CONTINUOUS
 62
   18
 10
1014.9875812072349
 20
550.86258848786679
 11
1024.9875812072346
 21
540.86258848786667
  0
LINE
  8
_0-7_ハッチ
  6
CONTINUOUS
 62
   18
 10
1017.0636373515235
 20
540.86258023987261
 11
1027.0636455995177
 21
550.86258848786679
  0
LINE
  8
_0-7_ハッチ
  6
CONTINUOUS
 62
   18
 10
1017.0636373515235
 20
550.86258848786679
 11
1027.0636455995177
 21
540.86258023987261
  0
LINE
  8
_0-7_ハッチ
  6
CONTINUOUS
 62
   18
 10
1019.1849576950832
 20
550.86258848786679
 11
1029.1849659430773
 21
540.86258023987261
  0
LINE
  8
_0-7_ハッチ
  6
CONTINUOUS
 62
   18
 10
1019.1849576950832
 20
540.86258023987261
 11
1029.1849659430773
 21
550.86258848786679
  0
LINE
  8
_0-7_ハッチ
  6
CONTINUOUS
 62
   18
 10
1021.3062780386429
 20
540.86258023987261
 11
1031.3062862866368
 21
550.86258848786679
  0
LINE
  8
_0-7_ハッチ
  6
CONTINUOUS
 62
   18
 10
1021.3062780386429
 20
550.86258848786679
 11
1031.3062780386431
 21
540.86258848786667
  0
LINE
  8
_0-7_ハッチ
  6
CONTINUOUS
 62
   18
 10
949.93376558606712
 20
540.86258848786667
 11
951.5923997133433
 21
542.52122261514273
  0
LINE
  8
_0-7_ハッチ
  6
CONTINUOUS
 62
   18
 10
948.51955202369413
 20
540.86258848786667
 11
951.5923997133433
 21
543.93543617751584
  0
LINE
  8
_0-d_寸法
  6
CONTINUOUS
 62
   18
 10
1120.5423997356947
 20
496.86258848786673
 11
1120.5423997356947
 21
492.09258850563629
  0
CIRCLE
  8
_0-d_寸法
  6
CONTINUOUS
 62
   18
 10
1120.5423997356947
 20
496.86258848786673
 40
1.7254760742187489
  0
LINE
  8
_0-d_寸法
  6
CONTINUOUS
 62
   18
 10
1120.5423997356947
 20
545.63258847009706
 11
1120.5423997356947
 21
540.86258848786667
  0
CIRCLE
  8
_0-d_寸法
  6
CONTINUOUS
 62
   18
 10
1120.5423997356947
 20
540.86258848786667
 40
1.7254760742187489
  0
LINE
  8
_0-d_寸法
  6
CONTINUOUS
 62
   18
 10
1120.5423997356947
 20
540.86258848786667
 11
1120.5423997356947
 21
496.86258848786673
  0
LINE
  8
_0-d_寸法
  6
CONTINUOUS
 62
   18
 10
1084.0423997133432
 20
496.86258848786673
 11
1120.5423997356947
 21
496.86258848786673
  0
LINE
  8
_0-1_躯体
  6
CONTINUOUS
 62
    7
 10
1044.5923997133432
 20
525.86258848786667
 11
1044.5923997133432
 21
259.81258848786678
  0
LINE
  8
_0-1_躯体
  6
CONTINUOUS
 62
    7
 10
939.5923997133433
 20
249.17793037070501
 11
862.54239971334323
 21
249.17793037070501
  0
LINE
  8
_0-e_文字
  6
CONTINUOUS
 62
    7
 10
888.04239971334323
 20
258.17793037070498
 11
890.64049971334339
 21
249.17793037070501
  0
LINE
  8
_0-e_文字
  6
CONTINUOUS
 62
    7
 10
890.64049971334339
 20
249.17793037070501
 11
893.23859971334332
 21
258.17793037070498
  0
LINE
  8
_0-e_文字
  6
CONTINUOUS
 62
    7
 10
893.23859971334332
 20
258.17793037070498
 11
888.04239971334323
 21
258.17793037070498
  0
LINE
  8
_0-1_躯体
  6
CONTINUOUS
 62
   18
 10
939.5923997133433
 20
550.86258848786679
 11
1044.5923997133432
 21
595.86258848786667
  0
LINE
  8
_0-1_躯体
  6
CONTINUOUS
 62
    7
 10
1035.5923997133432
 20
550.86258848786679
 11
1044.5923997133432
 21
550.86258848786679
  0
LINE
  8
_0-1_躯体
  6
CONTINUOUS
 62
    7
 10
939.5923997133433
 20
595.86258848786667
 11
1044.5923997133432
 21
595.86258848786667
  0
LINE
  8
_0-1_躯体
  6
CONTINUOUS
 62
    7
 10
1044.5923997133432
 20
595.86258848786667
 11
1044.5923997133432
 21
550.86258848786679
  0
LINE
  8
_0-1_躯体
  6
CONTINUOUS
 62
    7
 10
1044.5923997133432
 20
550.86258848786679
 11
939.5923997133433
 21
550.86258848786679
  0
LINE
  8
_0-1_躯体
  6
CONTINUOUS
 62
    7
 10
939.5923997133433
 20
550.86258848786679
 11
939.5923997133433
 21
595.86258848786667
  0
LINE
  8
_0-d_寸法
  6
CONTINUOUS
 62
   18
 10
1067.0923997133432
 20
515.31258848786672
 11
1067.0923997133432
 21
441.81258848786672
  0
LINE
  8
_0-d_寸法
  6
CONTINUOUS
 62
   18
 10
1067.0923997133432
 20
450.81258848786672
 11
1071.8623996955735
 21
450.81258848786672
  0
CIRCLE
  8
_0-d_寸法
  6
CONTINUOUS
 62
   18
 10
1067.0923997133432
 20
450.81258848786672
 40
1.7254760742187489
  0
LINE
  8
_0-d_寸法
  6
CONTINUOUS
 62
   18
 10
1044.5923997133432
 20
450.81258848786672
 11
1067.0923997133432
 21
450.81258848786672
  0
LINE
  8
_0-d_寸法
  6
CONTINUOUS
 62
   18
 10
930.5923997133433
 20
672.06456181024328
 11
939.5923997133433
 21
672.06456181024328
  0
LINE
  8
_0-d_寸法
  6
CONTINUOUS
 62
   18
 10
939.5923997133433
 20
659.83456179247355
 11
939.5923997133433
 21
678.06456178789153
  0
LINE
  8
_0-d_寸法
  6
CONTINUOUS
 62
   18
 10
939.5923997133433
 20
672.06456181024328
 11
1044.5923997133432
 21
672.06456181024328
  0
CIRCLE
  8
_0-d_寸法
  6
CONTINUOUS
 62
   18
 10
939.5923997133433
 20
672.06456181024328
 40
1.7254760742187489
  0
LINE
  8
_0-d_寸法
  6
CONTINUOUS
 62
   18
 10
1044.5923997133432
 20
654.33456179247355
 11
1044.5923997133432
 21
678.06456178789153
  0
LINE
  8
_0-d_寸法
  6
CONTINUOUS
 62
   18
 10
1044.5923997133432
 20
672.06456181024328
 11
1054.0923997133432
 21
672.06456181024328
  0
CIRCLE
  8
_0-d_寸法
  6
CONTINUOUS
 62
   18
 10
1044.5923997133432
 20
672.06456181024328
 40
1.7254760742187489
  0
LINE
  8
_0-d_寸法
  6
CONTINUOUS
 62
   18
 10
1057.0923997133432
 20
654.83456179247366
 11
1057.0923997133432
 21
678.06456178789153
  0
CIRCLE
  8
_0-d_寸法
  6
CONTINUOUS
 62
   18
 10
1057.0923997133432
 20
672.06456181024328
 40
1.7254760742187489
  0
TEXT
  8
_0-d_寸法
 62
    4
 10
1052.1082531913385
 20
452.11210572644535
 40
9
 41
1
 50
0
  1
23
  0
LINE
  8
_0-1_躯体
  6
CONTINUOUS
 62
    7
 10
938.09239971334296
 20
675.86456181024334
 11
939.5923997133433
 21
675.86456181024334
  0
LINE
  8
_0-d_寸法
  6
CONTINUOUS
 62
   18
 10
921.59239971334296
 20
659.83456179247355
 11
921.59239971334296
 21
678.06456178789153
  0
LINE
  8
_0-d_寸法
  6
CONTINUOUS
 62
   18
 10
921.59239971334296
 20
672.06456181024328
 11
939.5923997133433
 21
672.06456181024328
  0
CIRCLE
  8
_0-d_寸法
  6
CONTINUOUS
 62
   18
 10
921.59239971334296
 20
672.06456181024328
 40
1.7254760742187489
  0
LINE
  8
_0-d_寸法
  6
CONTINUOUS
 62
   18
 10
907.59239971334318
 20
672.06456181024328
 11
921.59239971334296
 21
672.06456181024328
  0
LINE
  8
_0-d_寸法
  6
CONTINUOUS
 62
   18
 10
939.5923997133433
 20
659.83456179247355
 11
939.5923997133433
 21
678.06456178789153
  0
CIRCLE
  8
_0-d_寸法
  6
CONTINUOUS
 62
   18
 10
939.5923997133433
 20
672.06456181024328
 40
1.7254760742187489
  0
LINE
  8
_0-d_寸法
  6
CONTINUOUS
 62
   18
 10
907.59239971334318
 20
659.83456179247355
 11
907.59239971334318
 21
678.06456178789153
  0
CIRCLE
  8
_0-d_寸法
  6
CONTINUOUS
 62
   18
 10
907.59239971334318
 20
672.06456181024328
 40
1.7254760742187489
  0
LINE
  8
_0-d_寸法
  6
CONTINUOUS
 62
   18
 10
902.82239973111268
 20
672.06456181024328
 11
907.59239971334318
 21
672.06456181024328
  0
LINE
  8
_0-d_寸法
  6
CONTINUOUS
 62
   18
 10
1067.0923997133432
 20
654.33456179247355
 11
1067.0923997133432
 21
678.06456178789153
  0
CIRCLE
  8
_0-d_寸法
  6
CONTINUOUS
 62
   18
 10
1067.0923997133432
 20
672.06456181024328
 40
1.7254760742187489
  0
LINE
  8
_0-1_躯体
  6
CONTINUOUS
 62
    7
 10
938.09239971334296
 20
595.86258848786667
 11
921.59239971334296
 21
595.86258848786667
  0
LINE
  8
_0-1_躯体
  6
CONTINUOUS
 62
    7
 10
938.09239971334296
 20
640.86258848786645
 11
921.59239971334296
 21
640.86258848786645
  0
LINE
  8
_0-1_躯体
  6
CONTINUOUS
 62
    7
 10
938.09239971334296
 20
659.83456179247355
 11
938.09239971334296
 21
595.86258848786667
  0
LINE
  8
_0-1_躯体
  6
CONTINUOUS
 62
   18
 10
921.59239971334296
 20
595.86258848786667
 11
938.09239971334296
 21
640.86258848786645
  0
LINE
  8
_0-1_躯体
  6
CONTINUOUS
 62
    7
 10
907.59239971334318
 20
591.73762973786665
 11
907.59239971334318
 21
659.83456179247355
  0
LINE
  8
_0-1_躯体
  6
CONTINUOUS
 62
    7
 10
921.59239971334296
 20
591.73762973786665
 11
907.59239971334318
 21
591.73762973786665
  0
LINE
  8
_0-1_躯体
  6
CONTINUOUS
 62
    7
 10
921.59239971334296
 20
591.73762973786665
 11
921.59239971334296
 21
659.83456179247355
  0
LINE
  8
_0-1_躯体
  6
CONTINUOUS
 62
    7
 10
939.5923997133433
 20
594.69142103776426
 11
891.22139971334286
 21
582.59879196526435
  0
LINE
  8
_0-1_躯体
  6
CONTINUOUS
 62
    7
 10
938.09239971334296
 20
595.86258848786667
 11
889.72139971334286
 21
583.76995941536666
  0
LINE
  8
_0-1_躯体
  6
CONTINUOUS
 62
    7
 10
939.5923997133433
 20
659.83456179247355
 11
939.5923997133433
 21
575.86258848786656
  0
LINE
  8
_0-1_躯体
  6
CONTINUOUS
 62
    7
 10
939.5923997133433
 20
550.86258848786679
 11
939.5923997133433
 21
659.83456179247355
  0
TEXT
  8
_0-d_寸法
 62
    4
 10
985.76871205578107
 20
452.00571286250926
 40
9
 41
1
 50
0
  1
105
  0
LINE
  8
_0-d_寸法
  6
CONTINUOUS
 62
   18
 10
1074.081641485297
 20
275.1975884878666
 11
1074.081641485297
 21
266.20258848786676
  0
LINE
  8
_0-d_寸法
  6
CONTINUOUS
 62
   18
 10
1044.5923997133432
 20
271.19758848786671
 11
1080.0816414629448
 21
271.19758848786671
  0
LINE
  8
_0-e_文字
  6
CONTINUOUS
 62
    7
 10
1104.4458968878942
 20
280.19758848786671
 11
1107.0439968878941
 21
271.19758848786671
  0
LINE
  8
_0-e_文字
  6
CONTINUOUS
 62
    7
 10
1107.0439968878941
 20
271.19758848786671
 11
1109.6420968878942
 21
280.19758848786671
  0
LINE
  8
_0-e_文字
  6
CONTINUOUS
 62
    7
 10
1109.6420968878942
 20
280.19758848786671
 11
1104.4458968878942
 21
280.19758848786671
  0
TEXT
  8
_0-d_寸法
 62
    4
 10
229.51782283076614
 20
364.09740422370731
 40
9
 41
1
 50
90
  1
14
  0
LINE
  8
_0-2_造作工事
  6
CONTINUOUS
 62
    7
 10
939.5923997133433
 20
530.86258848786679
 11
899.59239971334296
 21
530.86258848786679
  0
LINE
  8
_0-2_造作工事
  6
CONTINUOUS
 62
    7
 10
899.59239971334296
 20
565.86258848786679
 11
899.59239971334296
 21
530.86258848786679
  0
LINE
  8
_0-2_造作工事
  6
CONTINUOUS
 62
    7
 10
939.5923997133433
 20
565.86258848786679
 11
899.59239971334296
 21
565.86258848786679
  0
LINE
  8
_0-2_造作工事
  6
CONTINUOUS
 62
    7
 10
939.5923997133433
 20
530.86258848786679
 11
939.5923997133433
 21
565.86258848786679
  0
LINE
  8
_0-1_躯体
  6
CONTINUOUS
 62
    7
 10
891.22139971334286
 20
582.59879196526435
 11
891.22139971334286
 21
533.46058848786674
  0
LINE
  8
_0-1_躯体
  6
CONTINUOUS
 62
    7
 10
889.72139971334286
 20
583.76995941536666
 11
889.72139971334286
 21
530.86258848786679
  0
LINE
  8
_0-1_躯体
  6
CONTINUOUS
 62
    7
 10
899.59239971334296
 20
535.69556680819915
 11
898.84239971334296
 21
536.99456680819912
  0
LINE
  8
_0-1_躯体
  6
CONTINUOUS
 62
    7
 10
891.22139971334286
 20
533.46058848786674
 11
891.22139971334286
 21
532.59456680819903
  0
LINE
  8
_0-1_躯体
  6
CONTINUOUS
 62
    7
 10
891.22139971334286
 20
532.59456680819903
 11
898.84239971334296
 21
536.99456680819912
  0
LINE
  8
_0-1_躯体
  6
CONTINUOUS
 62
    7
 10
891.22139971334286
 20
530.86258848786679
 11
899.59239971334296
 21
535.69556680819915
  0
LINE
  8
_0-1_躯体
  6
CONTINUOUS
 62
    7
 10
889.72139971334286
 20
530.86258848786679
 11
891.22139971334286
 21
530.86258848786679
  0
LINE
  8
_0-7_ハッチ
  6
CONTINUOUS
 62
   18
 10
899.3212117135929
 20
550.59140048811651
 11
899.05002371384262
 21
550.86258848786679
  0
LINE
  8
_0-7_ハッチ
  6
CONTINUOUS
 62
   18
 10
939.86358771309369
 20
546.13377648761707
 11
940.13477571284375
 21
545.86258848786667
  0
LINE
  8
_0-7_ハッチ
  6
CONTINUOUS
 62
   18
 10
908.13477571284398
 20
530.86258848786667
 11
907.87786076571217
 21
530.60567354073487
  0
LINE
  8
_0-7_ハッチ
  6
CONTINUOUS
 62
   18
 10
939.86358771309369
 20
550.59140048811651
 11
940.13477571284375
 21
550.86258848786679
  0
LINE
  8
_0-7_ハッチ
  6
CONTINUOUS
 62
   18
 10
899.59239971334353
 20
563.57454447729879
 11
901.88044372391164
 21
565.86258848786679
  0
LINE
  8
_0-7_ハッチ
  6
CONTINUOUS
 62
   18
 10
899.59239971334353
 20
556.50347666543325
 11
908.95151153577706
 21
565.86258848786679
  0
LINE
  8
_0-7_ハッチ
  6
CONTINUOUS
 62
   18
 10
899.59239971334353
 20
549.43240885356795
 11
916.02257934764248
 21
565.86258848786679
  0
LINE
  8
_0-7_ハッチ
  6
CONTINUOUS
 62
   18
 10
899.59239971334353
 20
542.3613410417023
 11
923.09364715950801
 21
565.86258848786679
  0
LINE
  8
_0-7_ハッチ
  6
CONTINUOUS
 62
   18
 10
899.59239971334353
 20
535.29027322983688
 11
930.16471497137331
 21
565.86258848786679
  0
LINE
  8
_0-7_ハッチ
  6
CONTINUOUS
 62
   18
 10
902.23578278323885
 20
530.86258848786667
 11
937.23578278323896
 21
565.86258848786679
  0
LINE
  8
_0-7_ハッチ
  6
CONTINUOUS
 62
   18
 10
937.59112184256628
 20
530.86258848786667
 11
939.5923997133433
 21
532.86386635864392
  0
LINE
  8
_0-7_ハッチ
  6
CONTINUOUS
 62
   18
 10
916.37791840696991
 20
530.86258848786667
 11
939.5923997133433
 21
554.07706979424029
  0
LINE
  8
_0-7_ハッチ
  6
CONTINUOUS
 62
   18
 10
923.44898621883533
 20
530.86258848786667
 11
939.5923997133433
 21
547.00600198237476
  0
LINE
  8
_0-7_ハッチ
  6
CONTINUOUS
 62
   18
 10
930.52005403070075
 20
530.86258848786667
 11
939.5923997133433
 21
539.93493417050934
  0
LINE
  8
_0-7_ハッチ
  6
CONTINUOUS
 62
   18
 10
909.30685059510438
 20
530.86258848786667
 11
939.5923997133433
 21
561.14813760610582
  0
LINE
  8
_0-3_雑工事
  6
CENTER1
 62
    7
 10
941.0923997133433
 20
659.83456179247355
 11
941.0923997133433
 21
550.86258848786679
  0
LINE
  8
_0-3_雑工事
  6
PHANTOM1
 62
    7
 10
938.59239971334318
 20
659.83456179247355
 11
938.59239971334318
 21
530.86258848786679
  0
TEXT
  8
_0-d_寸法
 62
    4
 10
572.78833701034216
 20
361.63516244185644
 40
6.0000000000001998
 41
0.9999999999999618
 50
45.000000000000583
  1
28.5
  0
TEXT
  8
_0-d_寸法
 62
    4
 10
470.16363435299826
 20
359.02970698113211
 40
9
 41
1
 50
90
  1
40
  0
LINE
  8
_0-3_雑工事
  6
CONTINUOUS
 62
    7
 10
951.5923997133433
 20
540.86258848786656
 11
941.59239971334318
 21
540.86258848786656
  0
LINE
  8
_0-3_雑工事
  6
CONTINUOUS
 62
    7
 10
941.59239971334318
 20
540.86258848786656
 11
942.5923997133433
 21
541.86258848786679
  0
LINE
  8
_0-3_雑工事
  6
CONTINUOUS
 62
    7
 10
942.5923997133433
 20
541.86258848786679
 11
942.5923997133433
 21
548.16258848786651
  0
LINE
  8
_0-3_雑工事
  6
CONTINUOUS
 62
    7
 10
942.5923997133433
 20
548.16258848786651
 11
939.5923997133433
 21
550.86258848786679
  0
LINE
  8
_0-3_雑工事
  6
CONTINUOUS
 62
    7
 10
939.5923997133433
 20
550.86258848786679
 11
951.5923997133433
 21
550.86258848786679
  0
LINE
  8
_0-3_雑工事
  6
CONTINUOUS
 62
    7
 10
951.5923997133433
 20
550.86258848786679
 11
951.5923997133433
 21
540.86258848786656
  0
LINE
  8
ADD_LINE
  6
DOT
 62
    9
 10
954.44431073074838
 20
545.86258848786656
 11
939.78799949072868
 21
545.86258848786656
  0
LINE
  8
_0-3_雑工事
  6
CONTINUOUS
 62
    7
 10
961.59239971334341
 20
550.86258848786656
 11
961.59239971334341
 21
540.86258848786656
  0
CIRCLE
  8
_0-3_雑工事
  6
CONTINUOUS
 62
    7
 10
956.59239971334341
 20
545.86258848786667
 40
4.9999999999999929
  0
LINE
  8
_0-7_ハッチ
  6
CONTINUOUS
 62
   18
 10
958.41855650017408
 20
541.20800457628957
 11
951.93781580176631
 21
547.68874527469734
  0
LINE
  8
_0-7_ハッチ
  6
CONTINUOUS
 62
   18
 10
957.29950649452985
 20
540.9128410195608
 11
951.64265224503754
 21
546.569695269053
  0
LINE
  8
_0-7_ハッチ
  6
CONTINUOUS
 62
   18
 10
955.88529293215652
 20
540.9128410195608
 11
951.64265224503754
 21
545.15548170667989
  0
LINE
  8
_0-7_ハッチ
  6
CONTINUOUS
 62
   18
 10
960.12793361927618
 20
542.32705458193391
 11
953.05686580741053
 21
549.39812239379944
  0
LINE
  8
_0-7_ハッチ
  6
CONTINUOUS
 62
   18
 10
959.34939454729465
 20
541.69138009154233
 11
952.42119131701895
 21
548.6195833218178
  0
LINE
  8
_0-7_ハッチ
  6
CONTINUOUS
 62
   18
 10
960.76360810966776
 20
543.10559365391543
 11
953.83540487939229
 21
550.03379688419102
  0
LINE
  8
_0-7_ハッチ
  6
CONTINUOUS
 62
   18
 10
951.93781580176631
 20
544.03643170103601
 11
958.41855650017419
 21
550.51717239944378
  0
LINE
  8
_0-7_ハッチ
  6
CONTINUOUS
 62
   18
 10
951.64265224503754
 20
545.15548170668012
 11
957.29950649452985
 21
550.81233595617255
  0
LINE
  8
_0-7_ハッチ
  6
CONTINUOUS
 62
   18
 10
951.64265224503754
 20
546.56969526905334
 11
955.88529293215686
 21
550.81233595617255
  0
LINE
  8
_0-7_ハッチ
  6
CONTINUOUS
 62
   18
 10
953.05686580741053
 20
542.32705458193391
 11
960.12793361927618
 21
549.39812239379933
  0
LINE
  8
_0-7_ハッチ
  6
CONTINUOUS
 62
   18
 10
952.42119131701907
 20
543.10559365391543
 11
959.34939454729476
 21
550.03379688419091
  0
LINE
  8
_0-7_ハッチ
  6
CONTINUOUS
 62
   18
 10
953.83540487939229
 20
541.69138009154233
 11
960.76360810966776
 21
548.6195833218178
  0
LINE
  8
_0-7_ハッチ
  6
CONTINUOUS
 62
   18
 10
954.76624292651263
 20
541.20800457628957
 11
961.2469836249204
 21
547.68874527469734
  0
LINE
  8
_0-7_ハッチ
  6
CONTINUOUS
 62
   18
 10
955.88529293215697
 20
540.9128410195608
 11
961.54214718164917
 21
546.569695269053
  0
LINE
  8
_0-7_ハッチ
  6
CONTINUOUS
 62
   18
 10
957.29950649453019
 20
540.9128410195608
 11
961.54214718164917
 21
545.15548170667989
  0
LINE
  8
_0-7_ハッチ
  6
CONTINUOUS
 62
   18
 10
961.2469836249204
 20
544.03643170103578
 11
954.76624292651263
 21
550.51717239944378
  0
LINE
  8
_0-7_ハッチ
  6
CONTINUOUS
 62
   18
 10
961.54214718164917
 20
546.56969526905323
 11
957.29950649452985
 21
550.81233595617255
  0
LINE
  8
_0-7_ハッチ
  6
CONTINUOUS
 62
   18
 10
961.54214718164917
 20
545.15548170668001
 11
955.88529293215686
 21
550.81233595617255
  0
LINE
  8
ADD_LINE
  6
DOT
 62
    9
 10
961.59239971334341
 20
545.86258848786656
 11
951.5923997133433
 21
545.86258848786656
  0
LINE
  8
ADD_LINE
  6
DOT
 62
    9
 10
956.59239971334341
 20
540.86258848786656
 11
956.59239971334353
 21
550.86258848786679
  0
LINE
  8
_0-7_ハッチ
  6
CONTINUOUS
 62
   18
 10
961.59239971334341
 20
542.73948001852921
 11
963.46929949199989
 21
540.86258023987261
  0
LINE
  8
_0-7_ハッチ
  6
CONTINUOUS
 62
   18
 10
961.59239971334341
 20
548.98568870921008
 11
963.46929949199989
 21
550.86258848786679
  0
LINE
  8
_0-7_ハッチ
  6
CONTINUOUS
 62
   18
 10
961.59239971334341
 20
544.74304802209099
 11
967.71194017911887
 21
550.86258848786679
  0
LINE
  8
_0-7_ハッチ
  6
CONTINUOUS
 62
   18
 10
961.59239971334341
 20
546.86436836565065
 11
965.59061983555955
 21
550.86258848786679
  0
LINE
  8
_0-7_ハッチ
  6
CONTINUOUS
 62
   18
 10
961.59239971334341
 20
546.98212070564841
 11
967.71194017911887
 21
540.86258023987261
  0
LINE
  8
_0-7_ハッチ
  6
CONTINUOUS
 62
   18
 10
961.59239971334341
 20
544.86080036208875
 11
965.59061983555955
 21
540.86258023987261
  0
LINE
  8
_0-7_ハッチ
  6
CONTINUOUS
 62
   18
 10
961.59239971334341
 20
549.10344104920796
 11
969.83326052267887
 21
540.86258023987261
  0
LINE
  8
_0-7_ハッチ
  6
CONTINUOUS
 62
   18
 10
961.59239971334341
 20
542.62172767853133
 11
969.83326052267887
 21
550.86258848786679
  0
SOLID
  8
_0-f_
  6
CONTINUOUS
 62
    7
 10
928.15201998678901
 20
686.57067851509339
 11
921.30198989281985
 21
693.66409232777607
 12
925.76642681506496
 22
696.13877012341652
 13
925.76642681506496
 23
696.13877012341652
  0
LINE
  8
_0-f_
  6
CONTINUOUS
 62
    7
 10
913.53241998678902
 20
711.89267851509351
 11
928.15201998678901
 21
686.57067851509339
  0
SOLID
  8
_0-f_
  6
CONTINUOUS
 62
    7
 10
912.76488574345944
 20
685.73725629324395
 11
905.91485564949051
 21
692.83067010592652
 12
910.37929257173573
 22
695.30534790156685
 13
910.37929257173573
 23
695.30534790156685
  0
LINE
  8
_0-f_
  6
CONTINUOUS
 62
    7
 10
895.92878574345946
 20
714.89825629324389
 11
912.76488574345944
 21
685.73725629324395
  0
LINE
  8
_0-f_
  6
CONTINUOUS
 62
    7
 10
915.64611998678879
 20
708.23167851509356
 11
899.19161998678896
 21
736.73167851509356
  0
LINE
  8
_0-f_
  6
CONTINUOUS
 62
    7
 10
979.89321665543616
 20
620.44636422185249
 11
947.13961587145911
 21
548.28278572038107
  0
SOLID
  8
_0-f_
  6
CONTINUOUS
 62
    7
 10
947.13961587145911
 20
548.28278572038107
 11
948.85196152705896
 21
557.99398050588456
 12
953.4781481020201
 22
555.83675427792593
 13
953.4781481020201
 23
555.83675427792593
  0
SOLID
  8
_0-f_
  6
CONTINUOUS
 62
    7
 10
1002.0665997133431
 20
545.61258848786679
 11
1003.7789453689426
 21
555.32378327336983
 12
1008.4051319439037
 22
553.16655704541154
 13
1008.4051319439037
 23
553.16655704541154
  0
LINE
  8
_0-f_
  6
CONTINUOUS
 62
    7
 10
986.43167859344805
 20
620.44636422185249
 11
979.89321665543616
 21
620.44636422185249
  0
SOLID
  8
_0-f_
  6
CONTINUOUS
 62
    7
 10
889.72139971334286
 20
567.08403146099181
 11
882.87136961937404
 21
574.17744527367427
 12
887.33580654161915
 22
576.65212306931471
 13
887.33580654161915
 23
576.65212306931471
  0
LINE
  8
_0-f_
  6
CONTINUOUS
 62
    7
 10
880.82699971334296
 20
582.48963146099175
 11
889.72139971334286
 21
567.08403146099181
  0
SOLID
  8
_0-f_
  6
CONTINUOUS
 62
    7
 10
938.64268703084076
 20
581.97330815869816
 11
931.66990308874711
 21
588.9460921007917
 12
936.09047097293421
 22
591.49830815869814
 13
936.09047097293421
 23
591.49830815869814
  0
LINE
  8
_0-f_
  6
CONTINUOUS
 62
    7
 10
924.77846037617348
 20
605.98674254408729
 11
938.64268703084076
 21
581.97330815869816
  0
LINE
  8
_0-f_
  6
CONTINUOUS
 62
    7
 10
1014.3267232813294
 20
572.62449770255989
 11
1002.0665997133431
 21
545.61258848786679
  0
LINE
  8
_0-f_
  6
CONTINUOUS
 62
    7
 10
1072.7285262327521
 20
572.62449770255989
 11
1014.3267232813294
 21
572.62449770255989
  0
TEXT
  8
_0-d_寸法
 62
    4
 10
229.87803985002733
 20
347.04713197868824
 40
9
 41
1
 50
90
  1
18
  0
TEXT
  8
_0-d_寸法
 62
    4
 10
529.07497167162342
 20
311.49107199917802
 40
9
 41
1
 50
90
  1
47
  0
SOLID
  8
_0-f_
  6
CONTINUOUS
 62
    7
 10
1046.2327699576954
 20
633.29776961096695
 11
1055.7577699576955
 21
635.84998566887327
 12
1055.7577699576955
 22
630.74555355306052
 13
1055.7577699576955
 23
630.74555355306052
  0
SOLID
  8
_0-f_
  6
CONTINUOUS
 62
    7
 10
958.47788560853439
 20
549.50007381618275
 11
960.1902312641339
 21
559.2112686016859
 12
964.81641783909504
 22
557.0540423737275
 13
964.81641783909504
 23
557.0540423737275
  0
LINE
  8
_0-f_
  6
CONTINUOUS
 62
    7
 10
975.92058208083176
 20
587.93039884157224
 11
958.47788560853439
 21
549.50007381618275
  0
TEXT
  8
_0-d_寸法
 62
    4
 10
443.0119531812224
 20
307.20025520845331
 40
9
 41
1
 50
90
  1
64
  0
TEXT
  8
_0-d_寸法
 62
    4
 10
470.16363435299826
 20
284.34208362659786
 40
9
 41
1
 50
90
  1
105
  0
LINE
  8
_0-f_
  6
CONTINUOUS
 62
    7
 10
1072.7285262327521
 20
587.93039884157224
 11
975.92058208083176
 21
587.93039884157224
  0
LINE
  8
_0-f_
  6
CONTINUOUS
 62
    7
 10
1072.7285262327521
 20
633.29776961096695
 11
1046.2327699576954
 21
633.29776961096695
  0
TEXT
  8
_0-d_寸法
 62
    4
 10
229.50869491497008
 20
279.94255015934385
 40
9
 41
1
 50
90
  1
105
  0
TEXT
  8
_0-d_寸法
 62
    4
 10
836.40429392061776
 20
258.72568539254792
 40
9
 41
1
 50
90
  1
15
  0
LINE
  8
ADD_LINE
  6
DOT
 62
    9
 10
872.90753769725609
 20
579.36142366924605
 11
872.90753769725609
 21
625.20869575962172
  0
LINE
  8
_0-f_
  6
CONTINUOUS
 62
    7
 10
872.90753769725609
 20
582.48963146099175
 11
880.82699971334296
 21
582.48963146099175
  0
LINE
  8
_0-f_
  6
CONTINUOUS
 62
    7
 10
924.77846037617348
 20
605.98674254408729
 11
872.90753769725609
 21
605.98674254408729
  0
LINE
  8
_0-f_
  6
CONTINUOUS
 62
    7
 10
872.90753769725609
 20
714.89825629324389
 11
895.92878574345946
 21
714.89825629324389
  0
LINE
  8
_0-f_
  6
CONTINUOUS
 62
    7
 10
899.19161998678896
 20
736.73167851509356
 11
872.90753769725609
 21
736.73167851509356
  0
TEXT
  8
_0-d_寸法
 62
    4
 10
443.55991757840104
 20
254.96098267742141
 40
9
 41
1
 50
90
  1
41
  0
TEXT
  8
_0-d_寸法
 62
    4
 10
529.68423216416932
 20
254.96098267742141
 40
9
 41
1
 50
90
  1
58
  0
TEXT
  8
_0-d_寸法
 62
    4
 10
1072.9955935695157
 20
252.56441839137864
 40
9
 41
1
 50
90
  1
25
  0
TEXT
  8
_0-d_寸法
 62
    4
 10
228.73154760679358
 20
223.42889698665127
 40
9
 41
1
 50
90
  1
12.5
  0
SOLID
  8
_0-f_
  6
CONTINUOUS
 62
    7
 10
1052.014680374727
 20
686.06983042616048
 11
1054.5668964326337
 21
695.59483042616046
 12
1058.9874643168207
 22
693.04261436825414
 13
1058.9874643168207
 23
693.04261436825414
  0
LINE
  8
_0-f_
  6
CONTINUOUS
 62
    7
 10
1066.7340064525542
 20
711.56456181024328
 11
1052.014680374727
 21
686.06983042616048
  0
LINE
  8
_0-f_
  6
CONTINUOUS
 62
    7
 10
1072.7285262327521
 20
711.56456181024328
 11
1066.7340064525542
 21
711.56456181024328
  0
TEXT
  8
_0-d_寸法
 62
    4
 10
470.82166162330674
 20
223.18150160964319
 40
9
 41
1
 50
90
  1
23
  0
TEXT
  8
_0-d_寸法
 62
    4
 10
230.33160315451778
 20
207.3840043910717
 40
9
 41
1
 50
90
  1
10
  0
SOLID
  8
_0-f_
  6
CONTINUOUS
 62
    7
 10
941.61122812176313
 20
652.69477243211168
 11
944.16344417966957
 21
662.21977243211177
 12
948.58401206385668
 22
659.66755637420533
 13
948.58401206385668
 23
659.66755637420533
  0
LINE
  8
_0-f_
  6
CONTINUOUS
 62
    7
 10
973.20162253379715
 20
707.41108058779844
 11
982.34837543987612
 21
707.41108058779844
  0
LINE
  8
_0-f_
  6
CONTINUOUS
 62
    7
 10
973.20162253379715
 20
707.41108058779844
 11
941.61122812176313
 21
652.69477243211168
  0
TEXT
  8
_0-d_寸法
 62
    4
 10
386.3060306627134
 20
158.23562613572065
 40
10.500000000000043
 41
0.9999999999999877
 50
0
  1
44
  0
TEXT
  8
_0-d_寸法
 62
    4
 10
582.25208869420635
 20
158.17922412690987
 40
10.499999999999979
 41
0.9999999999999938
 50
0
  1
44
  0
LINE
  8
_0-0_本体
  6
CONTINUOUS
 62
   18
 10
1003.5923997133434
 20
275.19758848786677
 11
984.5923997133433
 21
275.19758848786677
  0
LINE
  8
_0-0_本体
  6
CONTINUOUS
 62
   18
 10
1003.5923997133434
 20
275.19758848786677
 11
1003.5923997133434
 21
318.99758848786666
  0
LINE
  8
_0-0_本体
  6
CONTINUOUS
 62
   18
 10
1000.7639725885971
 20
492.86258848786667
 11
984.5923997133433
 21
492.86258848786667
  0
LINE
  8
_0-0_本体
  6
CONTINUOUS
 62
   18
 10
1000.7639725885971
 20
492.86258848786667
 11
1003.5923997133434
 21
490.03416136312035
  0
LINE
  8
_0-0_本体
  6
CONTINUOUS
 62
   18
 10
1003.5923997133434
 20
490.03416136312035
 11
1003.5923997133434
 21
449.06258848786661
  0
LINE
  8
_0-7_ハッチ
  6
CONTINUOUS
 62
   18
 10
1023.4275983822025
 20
540.86258023987261
 11
1033.4276066301966
 21
550.86258848786679
  0
LINE
  8
_0-7_ハッチ
  6
CONTINUOUS
 62
   18
 10
1025.5489187257622
 20
540.86258023987261
 11
1035.5489269737564
 21
550.86258848786679
  0
LINE
  8
_0-7_ハッチ
  6
CONTINUOUS
 62
   18
 10
1027.6702390693217
 20
540.86258023987261
 11
1037.6702473173161
 21
550.86258848786679
  0
LINE
  8
_0-7_ハッチ
  6
CONTINUOUS
 62
   18
 10
1029.7915594128813
 20
540.86258023987261
 11
1039.7915676608764
 21
550.86258848786679
  0
LINE
  8
_0-7_ハッチ
  6
CONTINUOUS
 62
   18
 10
1023.4275983822025
 20
550.86258848786679
 11
1033.4275983822026
 21
540.86258848786656
  0
LINE
  8
_0-7_ハッチ
  6
CONTINUOUS
 62
   18
 10
1025.5489187257624
 20
550.86258848786679
 11
1035.5489187257622
 21
540.86258848786656
  0
LINE
  8
_0-7_ハッチ
  6
CONTINUOUS
 62
   18
 10
1027.6702390693217
 20
550.86258848786679
 11
1037.6702390693217
 21
540.86258848786656
  0
LINE
  8
_0-7_ハッチ
  6
CONTINUOUS
 62
   18
 10
1029.7915594128813
 20
550.86258848786679
 11
1039.7915594128817
 21
540.86258848786656
  0
LINE
  8
_0-7_ハッチ
  6
CONTINUOUS
 62
   18
 10
1031.912879756441
 20
540.86258023987261
 11
1041.9128880044361
 21
550.86258848786679
  0
LINE
  8
_0-7_ハッチ
  6
CONTINUOUS
 62
   18
 10
1031.912879756441
 20
550.86258848786679
 11
1041.9128797564415
 21
540.86258848786656
  0
LINE
  8
_0-7_ハッチ
  6
CONTINUOUS
 62
   18
 10
1034.0342001000008
 20
550.86258848786667
 11
1044.0342001000013
 21
540.86258848786656
  0
LINE
  8
_0-7_ハッチ
  6
CONTINUOUS
 62
   18
 10
1042.5194814742401
 20
540.8625802398725
 11
1044.5923997133432
 21
540.8625802398725
  0
LINE
  8
_0-7_ハッチ
  6
CONTINUOUS
 62
   18
 10
1042.5194814742401
 20
540.8625802398725
 11
1044.5923997133432
 21
542.93549847897521
  0
LINE
  8
_0-7_ハッチ
  6
CONTINUOUS
 62
   18
 10
1036.1555204435606
 20
540.8625802398725
 11
1044.5923997133432
 21
549.29945950965418
  0
LINE
  8
_0-7_ハッチ
  6
CONTINUOUS
 62
   18
 10
1036.1555204435606
 20
550.86258848786656
 11
1044.5923997133432
 21
542.42570921808453
  0
LINE
  8
_0-7_ハッチ
  6
CONTINUOUS
 62
   18
 10
1038.2768407871204
 20
540.8625802398725
 11
1044.5923997133432
 21
547.17813916609452
  0
LINE
  8
_0-7_ハッチ
  6
CONTINUOUS
 62
   18
 10
1038.2768407871204
 20
550.86258848786656
 11
1044.5923997133432
 21
544.54702956164419
  0
LINE
  8
_0-7_ハッチ
  6
CONTINUOUS
 62
   18
 10
1040.3981611306804
 20
540.8625802398725
 11
1044.5923997133432
 21
545.05681882253486
  0
LINE
  8
_0-7_ハッチ
  6
CONTINUOUS
 62
   18
 10
1040.3981611306804
 20
550.86258848786656
 11
1044.5923997133432
 21
546.66834990520397
  0
LINE
  8
_0-7_ハッチ
  6
CONTINUOUS
 62
   18
 10
1042.5194814742401
 20
550.86258848786656
 11
1044.5923997133432
 21
548.78967024876363
  0
LINE
  8
_0-7_ハッチ
  6
CONTINUOUS
 62
   18
 10
1034.0342001000008
 20
540.86258023987261
 11
1044.0342083479959
 21
550.86258848786679
  0
TEXT
  8
_0-d_寸法
 62
    4
 10
619.45292371837286
 20
149.94185482182485
 40
9
 41
1
 50
0
  1
10
  0
LINE
  8
_0-1_躯体
  6
CONTINUOUS
 62
    7
 10
1044.5923997133432
 20
271.19758848786671
 11
1151.5423997133432
 21
271.19758848786671
  0
LINE
  8
_0-7_ハッチ
  6
CONTINUOUS
 62
   18
 10
883.93239971334344
 20
249.17793037070501
 11
867.29239971334346
 21
232.53793037070488
  0
LINE
  8
_0-7_ハッチ
  6
CONTINUOUS
 62
   18
 10
889.93239971334344
 20
249.17793037070501
 11
873.29239971334346
 21
232.53793037070488
  0
LINE
  8
_0-7_ハッチ
  6
CONTINUOUS
 62
   18
 10
1120.0423997133432
 20
271.19758848786671
 11
1089.5423997133432
 21
240.6975884878666
  0
LINE
  8
_0-7_ハッチ
  6
CONTINUOUS
 62
   18
 10
1123.0423997133432
 20
271.19758848786671
 11
1092.5423997133432
 21
240.6975884878666
  0
LINE
  8
_0-7_ハッチ
  6
CONTINUOUS
 62
   18
 10
1126.0423997133432
 20
271.19758848786671
 11
1095.5423997133432
 21
240.6975884878666
  0
LINE
  8
_0-d_寸法
  6
CONTINUOUS
 62
   18
 10
862.54239971334323
 20
256.19758848786671
 11
831.68832088363376
 21
256.19758848786671
  0
LINE
  8
_0-d_寸法
  6
CONTINUOUS
 62
   18
 10
862.54239971334323
 20
271.19758848786671
 11
831.68832088363376
 21
271.19758848786671
  0
LINE
  8
_0-d_寸法
  6
CONTINUOUS
 62
   18
 10
837.68832088363376
 20
275.96758847009721
 11
837.68832088363376
 21
271.19758848786671
  0
CIRCLE
  8
_0-d_寸法
  6
CONTINUOUS
 62
   18
 10
837.68832088363376
 20
271.19758848786671
 40
1.7254760742187489
  0
LINE
  8
_0-d_寸法
  6
CONTINUOUS
 62
   18
 10
837.68832088363376
 20
271.19758848786671
 11
837.68832088363376
 21
256.19758848786671
  0
LINE
  8
_0-d_寸法
  6
CONTINUOUS
 62
   18
 10
837.68832088363376
 20
256.19758848786671
 11
837.68832088363376
 21
251.1975884878666
  0
CIRCLE
  8
_0-d_寸法
  6
CONTINUOUS
 62
   18
 10
837.68832088363376
 20
256.19758848786671
 40
1.7254760742187489
  0
TEXT
  8
_0-d_寸法
 62
    4
 10
345.83640480069528
 20
147.80047913828702
 40
9
 41
1
 50
0
  1
10
  0
TEXT
  8
_0-d_寸法
 62
    4
 10
465.43095854451656
 20
147.64192224940248
 40
9
 41
1
 50
0
  1
W＝988
  0
LINE
  8
_0-0_本体
  6
CONTINUOUS
 62
   18
 10
575.93543697852488
 20
343.343604302031
 11
515.99909182208376
 21
343.343604302031
  0
LINE
  8
_0-0_本体
  6
CONTINUOUS
 62
   18
 10
563.79909182208371
 20
240.34360430203105
 11
563.79909182208371
 21
296.34360430203094
  0
LINE
  8
_0-2_造作工事
  6
CONTINUOUS
 62
    7
 10
444.70209182208362
 20
281.5016043109157
 11
444.70209182208362
 21
276.73160432868542
  0
LINE
  8
_0-0_本体
  6
CONTINUOUS
 62
   18
 10
399.48564071285995
 20
343.343604302031
 11
502.60509182208375
 21
343.343604302031
  0
CIRCLE
  8
_0-3_雑工事
  6
CONTINUOUS
 62
    7
 10
362.60509182208369
 20
326.34360430203111
 40
4.9999999999999929
  0
LINE
  8
_0-3_雑工事
  6
CONTINUOUS
 62
    7
 10
617.79909182208371
 20
321.34360430203105
 11
607.79909182208371
 21
321.34360430203105
  0
LINE
  8
_0-3_雑工事
  6
CONTINUOUS
 62
    7
 10
340.80509182208374
 20
373.343604302031
 11
342.60509182208364
 21
375.34360430203105
  0
LINE
  8
_0-7_ハッチ
  6
CONTINUOUS
 62
   18
 10
367.60509182208375
 20
311.58105629731301
 11
396.60509182208364
 21
340.58105629731301
  0
LINE
  8
_0-7_ハッチ
  6
CONTINUOUS
 62
   18
 10
367.60509182208375
 20
284.64028793410552
 11
396.60509182208364
 21
313.64028793410557
  0
LINE
  8
_0-7_ハッチ
  6
CONTINUOUS
 62
   18
 10
367.60509182208375
 20
257.69951957089825
 11
406.40717656210154
 21
296.5016043109157
  0
LINE
  8
_0-7_ハッチ
  6
CONTINUOUS
 62
   18
 10
375.34794492530887
 20
238.50160431091575
 11
411.60509182208381
 21
274.75875120769069
  0
LINE
  8
_0-7_ハッチ
  6
CONTINUOUS
 62
   18
 10
402.28871328851613
 20
238.50160431091575
 11
411.60509182208381
 21
247.81798284448351
  0
LINE
  8
_0-7_ハッチ
  6
CONTINUOUS
 62
   18
 10
358.58338660302047
 20
342.36530952109433
 11
357.60509182208364
 21
341.3870147401575
  0
LINE
  8
_0-7_ハッチ
  6
CONTINUOUS
 62
   18
 10
357.87627982183398
 20
343.07241630228083
 11
357.60509182208364
 21
342.80122830253066
  0
LINE
  8
_0-7_ハッチ
  6
CONTINUOUS
 62
   18
 10
357.99875723266808
 20
334.70961233887647
 11
357.60509182208364
 21
334.31594692829202
  0
LINE
  8
_0-7_ハッチ
  6
CONTINUOUS
 62
   18
 10
359.87167867364036
 20
340.82517446696806
 11
357.60509182208364
 21
338.55858761541134
  0
LINE
  8
_0-7_ハッチ
  6
CONTINUOUS
 62
   18
 10
359.20178803883209
 20
341.56949739453279
 11
357.60509182208364
 21
339.97280117778433
  0
LINE
  8
_0-7_ハッチ
  6
CONTINUOUS
 62
   18
 10
362.21853563344962
 20
340.343604302031
 11
357.60509182208364
 21
335.73016049066518
  0
LINE
  8
_0-7_ハッチ
  6
CONTINUOUS
 62
   18
 10
367.60510007007787
 20
334.92998590817336
 11
362.19148167622006
 21
340.343604302031
  0
LINE
  8
_0-7_ハッチ
  6
CONTINUOUS
 62
   18
 10
360.80432207107646
 20
340.343604302031
 11
357.60509182208364
 21
337.14437405303818
  0
LINE
  8
_0-7_ハッチ
  6
CONTINUOUS
 62
   18
 10
363.63274919582261
 20
340.343604302031
 11
357.99875723266808
 21
334.70961233887647
  0
LINE
  8
_0-7_ハッチ
  6
CONTINUOUS
 62
   18
 10
367.60510007007787
 20
336.34419947054636
 11
363.6056952385934
 21
340.343604302031
  0
LINE
  8
_0-7_ハッチ
  6
CONTINUOUS
 62
   18
 10
367.60510007007787
 20
337.75841303291952
 11
365.01990880096639
 21
340.343604302031
  0
LINE
  8
_0-7_ハッチ
  6
CONTINUOUS
 62
   18
 10
367.60510007007787
 20
339.17262659529268
 11
366.51960709271151
 21
340.25811957265887
  0
LINE
  8
_0-7_ハッチ
  6
CONTINUOUS
 62
   18
 10
367.60510007007787
 20
340.58684015766568
 11
367.22671387389818
 21
340.96522635384537
  0
LINE
  8
_0-7_ハッチ
  6
CONTINUOUS
 62
   18
 10
365.04696275819578
 20
340.343604302031
 11
357.60509182208364
 21
332.90173336591886
  0
LINE
  8
_0-7_ハッチ
  6
CONTINUOUS
 62
   18
 10
366.46117632056894
 20
340.343604302031
 11
357.60509182208364
 21
331.48751980354587
  0
LINE
  8
_0-7_ハッチ
  6
CONTINUOUS
 62
   18
 10
364.12041386435476
 20
331.343604302031
 11
357.60509182208364
 21
337.85892634430195
  0
LINE
  8
_0-7_ハッチ
  6
CONTINUOUS
 62
   18
 10
362.70620030198177
 20
331.343604302031
 11
357.60509182208364
 21
336.44471278192896
  0
LINE
  8
_0-7_ハッチ
  6
CONTINUOUS
 62
   18
 10
366.94884098910074
 20
331.343604302031
 11
357.60509182208364
 21
340.68735346904811
  0
LINE
  8
_0-7_ハッチ
  6
CONTINUOUS
 62
   18
 10
367.60510007007787
 20
338.65910092679377
 11
360.28960344531509
 21
331.343604302031
  0
LINE
  8
_0-7_ハッチ
  6
CONTINUOUS
 62
   18
 10
367.60510007007787
 20
340.07331448916693
 11
358.87538988294227
 21
331.343604302031
  0
LINE
  8
_0-7_ハッチ
  6
CONTINUOUS
 62
   18
 10
367.60510007007787
 20
337.24488736442078
 11
361.70381700768826
 21
331.343604302031
  0
LINE
  8
_0-7_ハッチ
  6
CONTINUOUS
 62
   18
 10
367.60510007007787
 20
335.83067380204761
 11
363.11803057006159
 21
331.343604302031
  0
LINE
  8
_0-7_ハッチ
  6
CONTINUOUS
 62
   18
 10
367.60509182208375
 20
333.51578059379449
 11
360.77726811384707
 21
340.343604302031
  0
LINE
  8
_0-7_ハッチ
  6
CONTINUOUS
 62
   18
 10
367.60509182208375
 20
332.10156703142133
 11
357.60509182208364
 21
342.10156703142127
  0
LINE
  8
_0-7_ハッチ
  6
CONTINUOUS
 62
   18
 10
358.46355961486279
 20
331.343604302031
 11
357.60509182208364
 21
332.20207209480998
  0
LINE
  8
_0-7_ハッチ
  6
CONTINUOUS
 62
   18
 10
359.87777317723578
 20
331.343604302031
 11
357.60509182208364
 21
333.61628565718297
  0
LINE
  8
_0-7_ハッチ
  6
CONTINUOUS
 62
   18
 10
361.29198673960877
 20
331.343604302031
 11
357.60509182208364
 21
335.03049921955596
  0
LINE
  8
_0-7_ハッチ
  6
CONTINUOUS
 62
   18
 10
365.53462742672775
 20
331.343604302031
 11
357.60509182208364
 21
339.27313990667511
  0
LINE
  8
_0-7_ハッチ
  6
CONTINUOUS
 62
   18
 10
367.60509182208375
 20
331.58802486693384
 11
367.36067125718091
 21
331.343604302031
  0
LINE
  8
_0-7_ハッチ
  6
CONTINUOUS
 62
   18
 10
367.6051000700777
 20
318.86011105357051
 11
357.60509182208364
 21
308.86010280557628
  0
LINE
  8
_0-7_ハッチ
  6
CONTINUOUS
 62
   18
 10
367.6051000700777
 20
316.7387907100109
 11
357.60509182208364
 21
306.73878246201662
  0
LINE
  8
_0-7_ハッチ
  6
CONTINUOUS
 62
   18
 10
367.6051000700777
 20
314.61747036645119
 11
357.60509182208364
 21
304.61746211845718
  0
LINE
  8
_0-7_ハッチ
  6
CONTINUOUS
 62
   18
 10
367.6051000700777
 20
312.49615002289158
 11
357.60509182208364
 21
302.49614177489747
  0
LINE
  8
_0-7_ハッチ
  6
CONTINUOUS
 62
   18
 10
357.60509182208364
 20
320.98143139713
 11
367.60509182208375
 21
310.98143139713005
  0
LINE
  8
_0-7_ハッチ
  6
CONTINUOUS
 62
   18
 10
357.60509182208364
 20
318.86011105357051
 11
367.60509182208375
 21
308.86011105357045
  0
LINE
  8
_0-7_ハッチ
  6
CONTINUOUS
 62
   18
 10
357.60509182208364
 20
316.7387907100109
 11
367.60509182208375
 21
306.73879071001073
  0
LINE
  8
_0-7_ハッチ
  6
CONTINUOUS
 62
   18
 10
357.60509182208364
 20
314.61747036645119
 11
367.60509182208375
 21
304.61747036645124
  0
LINE
  8
_0-7_ハッチ
  6
CONTINUOUS
 62
   18
 10
357.60509182208364
 20
312.4961500228917
 11
367.60509182208375
 21
302.49615002289158
  0
LINE
  8
_0-7_ハッチ
  6
CONTINUOUS
 62
   18
 10
367.6051000700777
 20
310.37482967933204
 11
357.60509182208364
 21
300.37482143133786
  0
LINE
  8
_0-7_ハッチ
  6
CONTINUOUS
 62
   18
 10
357.60509182208364
 20
310.37482967933204
 11
367.6051000700777
 21
300.37482143133786
  0
LINE
  8
_0-7_ハッチ
  6
CONTINUOUS
 62
   18
 10
357.60509182208364
 20
308.25350933577238
 11
367.6051000700777
 21
298.25350108777815
  0
LINE
  8
_0-7_ハッチ
  6
CONTINUOUS
 62
   18
 10
367.6051000700777
 20
308.25350933577238
 11
357.60509182208364
 21
298.25350108777815
  0
LINE
  8
_0-7_ハッチ
  6
CONTINUOUS
 62
   18
 10
367.6051000700777
 20
306.13218899221272
 11
357.60509182208364
 21
296.13218074421866
  0
LINE
  8
_0-7_ハッチ
  6
CONTINUOUS
 62
   18
 10
367.6051000700777
 20
304.01086864865306
 11
357.60509182208364
 21
294.01086040065883
  0
LINE
  8
_0-7_ハッチ
  6
CONTINUOUS
 62
   18
 10
367.6051000700777
 20
301.8895483050934
 11
357.60509182208364
 21
291.88954005709923
  0
LINE
  8
_0-7_ハッチ
  6
CONTINUOUS
 62
   18
 10
367.6051000700777
 20
299.76822796153374
 11
357.60509182208364
 21
289.76821971353968
  0
LINE
  8
_0-7_ハッチ
  6
CONTINUOUS
 62
   18
 10
367.6051000700777
 20
297.64690761797431
 11
357.60509182208364
 21
287.64689936998002
  0
LINE
  8
_0-7_ハッチ
  6
CONTINUOUS
 62
   18
 10
357.60509182208364
 20
306.13218899221272
 11
367.60509182208375
 21
296.1321889922126
  0
LINE
  8
_0-7_ハッチ
  6
CONTINUOUS
 62
   18
 10
357.60509182208364
 20
304.01086864865306
 11
367.60509182208375
 21
294.01086864865295
  0
LINE
  8
_0-7_ハッチ
  6
CONTINUOUS
 62
   18
 10
357.60509182208364
 20
301.8895483050934
 11
367.60509182208375
 21
291.88954830509329
  0
LINE
  8
_0-7_ハッチ
  6
CONTINUOUS
 62
   18
 10
357.60509182208364
 20
299.76822796153374
 11
367.60509182208375
 21
289.76822796153385
  0
LINE
  8
_0-7_ハッチ
  6
CONTINUOUS
 62
   18
 10
357.60509182208364
 20
297.64690761797431
 11
367.60509182208375
 21
287.64690761797431
  0
LINE
  8
_0-7_ハッチ
  6
CONTINUOUS
 62
   18
 10
367.6051000700777
 20
295.52558727441459
 11
357.60509182208364
 21
285.52557902642059
  0
LINE
  8
_0-7_ハッチ
  6
CONTINUOUS
 62
   18
 10
357.60509182208364
 20
295.52558727441459
 11
367.6051000700777
 21
285.52557902642059
  0
LINE
  8
_0-7_ハッチ
  6
CONTINUOUS
 62
   18
 10
357.60509182208364
 20
293.40426693085499
 11
367.6051000700777
 21
283.4042586828607
  0
LINE
  8
_0-7_ハッチ
  6
CONTINUOUS
 62
   18
 10
367.6051000700777
 20
293.40426693085499
 11
357.60509182208364
 21
283.40425868286087
  0
LINE
  8
_0-7_ハッチ
  6
CONTINUOUS
 62
   18
 10
367.6051000700777
 20
291.28294658729527
 11
357.60509182208364
 21
281.28293833930127
  0
LINE
  8
_0-7_ハッチ
  6
CONTINUOUS
 62
   18
 10
367.6051000700777
 20
289.16162624373567
 11
357.60509182208364
 21
279.16161799574155
  0
LINE
  8
_0-7_ハッチ
  6
CONTINUOUS
 62
   18
 10
367.6051000700777
 20
287.04030590017595
 11
357.60509182208364
 21
277.04029765218195
  0
LINE
  8
_0-7_ハッチ
  6
CONTINUOUS
 62
   18
 10
367.6051000700777
 20
284.91898555661646
 11
357.60509182208364
 21
274.91897730862223
  0
LINE
  8
_0-7_ハッチ
  6
CONTINUOUS
 62
   18
 10
367.6051000700777
 20
282.7976652130568
 11
357.60509182208364
 21
272.79765696506274
  0
LINE
  8
_0-7_ハッチ
  6
CONTINUOUS
 62
   18
 10
357.60509182208364
 20
291.28294658729527
 11
367.60509182208375
 21
281.28294658729521
  0
LINE
  8
_0-7_ハッチ
  6
CONTINUOUS
 62
   18
 10
357.60509182208364
 20
289.16162624373567
 11
367.60509182208375
 21
279.1616262437355
  0
LINE
  8
_0-7_ハッチ
  6
CONTINUOUS
 62
   18
 10
357.60509182208364
 20
287.04030590017595
 11
367.60509182208375
 21
277.04030590017589
  0
LINE
  8
_0-7_ハッチ
  6
CONTINUOUS
 62
   18
 10
357.60509182208364
 20
284.91898555661646
 11
367.60509182208375
 21
274.91898555661635
  0
LINE
  8
_0-7_ハッチ
  6
CONTINUOUS
 62
   18
 10
357.60509182208364
 20
282.7976652130568
 11
367.60509182208375
 21
272.79766521305686
  0
LINE
  8
_0-7_ハッチ
  6
CONTINUOUS
 62
   18
 10
367.6051000700777
 20
280.67634486949714
 11
357.60509182208364
 21
270.67633662150308
  0
LINE
  8
_0-7_ハッチ
  6
CONTINUOUS
 62
   18
 10
357.60509182208364
 20
280.67634486949714
 11
367.6051000700777
 21
270.67633662150308
  0
LINE
  8
_0-7_ハッチ
  6
CONTINUOUS
 62
   18
 10
357.60509182208364
 20
278.55502452593748
 11
367.6051000700777
 21
268.55501627794342
  0
LINE
  8
_0-7_ハッチ
  6
CONTINUOUS
 62
   18
 10
367.6051000700777
 20
278.55502452593748
 11
357.60509182208364
 21
268.55501627794342
  0
LINE
  8
_0-7_ハッチ
  6
CONTINUOUS
 62
   18
 10
367.6051000700777
 20
276.43370418237782
 11
357.60509182208364
 21
266.43369593438376
  0
LINE
  8
_0-7_ハッチ
  6
CONTINUOUS
 62
   18
 10
367.6051000700777
 20
274.31238383881816
 11
357.60509182208364
 21
264.3123755908241
  0
LINE
  8
_0-7_ハッチ
  6
CONTINUOUS
 62
   18
 10
367.6051000700777
 20
272.19106349525867
 11
357.60509182208364
 21
262.19105524726444
  0
LINE
  8
_0-7_ハッチ
  6
CONTINUOUS
 62
   18
 10
367.6051000700777
 20
270.06974315169907
 11
357.60509182208364
 21
260.06973490370495
  0
LINE
  8
_0-7_ハッチ
  6
CONTINUOUS
 62
   18
 10
367.6051000700777
 20
267.94842280813936
 11
357.60509182208364
 21
257.94841456014535
  0
LINE
  8
_0-7_ハッチ
  6
CONTINUOUS
 62
   18
 10
357.60509182208364
 20
276.43370418237782
 11
367.60509182208375
 21
266.43370418237794
  0
LINE
  8
_0-7_ハッチ
  6
CONTINUOUS
 62
   18
 10
357.60509182208364
 20
274.31238383881816
 11
367.60509182208375
 21
264.31238383881805
  0
LINE
  8
_0-7_ハッチ
  6
CONTINUOUS
 62
   18
 10
357.60509182208364
 20
272.19106349525867
 11
367.60509182208375
 21
262.19106349525839
  0
LINE
  8
_0-7_ハッチ
  6
CONTINUOUS
 62
   18
 10
357.60509182208364
 20
270.06974315169907
 11
367.60509182208375
 21
260.06974315169907
  0
LINE
  8
_0-7_ハッチ
  6
CONTINUOUS
 62
   18
 10
357.60509182208364
 20
267.94842280813953
 11
367.60509182208375
 21
257.94842280813941
  0
LINE
  8
_0-7_ハッチ
  6
CONTINUOUS
 62
   18
 10
367.6051000700777
 20
265.87236666385081
 11
357.60509182208364
 21
255.8723584158567
  0
LINE
  8
_0-7_ハッチ
  6
CONTINUOUS
 62
   18
 10
357.60509182208364
 20
265.87236666385081
 11
367.6051000700777
 21
255.8723584158567
  0
LINE
  8
_0-7_ハッチ
  6
CONTINUOUS
 62
   18
 10
357.60509182208364
 20
263.7510463202911
 11
367.6051000700777
 21
253.75103807229712
  0
LINE
  8
_0-7_ハッチ
  6
CONTINUOUS
 62
   18
 10
367.6051000700777
 20
263.7510463202911
 11
357.60509182208364
 21
253.75103807229712
  0
LINE
  8
_0-7_ハッチ
  6
CONTINUOUS
 62
   18
 10
367.60509182208375
 20
333.00223842930717
 11
365.94645769480758
 21
331.343604302031
  0
LINE
  8
_0-7_ハッチ
  6
CONTINUOUS
 62
   18
 10
367.60509182208375
 20
334.41645199168033
 11
364.53224413243458
 21
331.343604302031
  0
LINE
  8
_0-2_造作工事
  6
CONTINUOUS
 62
    7
 10
451.37509180431402
 20
238.343604302031
 11
477.60509179973189
 21
238.343604302031
  0
TEXT
  8
_0-e_文字
 62
    7
 10
821.49458513405898
 20
732.56303334181496
 40
9
 41
1
 50
0
  1
通気層t＝18
  0
TEXT
  8
_0-e_文字
 62
    4
 10
834.97321817007753
 20
723.55829459918175
 40
7.5000000000000853
 41
0.9999999999999932
 50
0
  1
(建築工事)
  0
LINE
  8
_0-2_造作工事
  6
CONTINUOUS
 62
    7
 10
451.37509180431402
 20
343.343604302031
 11
477.60509179973189
 21
343.343604302031
  0
LINE
  8
_0-1_躯体
  6
CONTINUOUS
 62
    7
 10
399.33079588960493
 20
299.20822691066201
 11
399.31517238104095
 21
299.19767430385525
  0
TEXT
  8
_0-e_文字
 62
    7
 10
820.17547197859381
 20
711.33915564144502
 40
9
 41
1
 50
0
  1
外壁材t＝14
  0
LINE
  8
_0-1_躯体
  6
CONTINUOUS
 62
    7
 10
297.60509182208364
 20
361.343604302031
 11
342.60509182208364
 21
361.343604302031
  0
LINE
  8
_0-1_躯体
  6
CONTINUOUS
 62
    7
 10
342.60509182208364
 20
361.343604302031
 11
342.60509182208364
 21
343.343604302031
  0
LINE
  8
_0-1_躯体
  6
CONTINUOUS
 62
    7
 10
342.60509182208364
 20
343.343604302031
 11
297.60509182208364
 21
343.343604302031
  0
LINE
  8
_0-1_躯体
  6
CONTINUOUS
 62
    7
 10
297.60509182208364
 20
343.343604302031
 11
297.60509182208364
 21
361.343604302031
  0
LINE
  8
_0-1_躯体
  6
CONTINUOUS
 62
   18
 10
342.60509182208364
 20
343.343604302031
 11
297.60509182208364
 21
361.343604302031
  0
TEXT
  8
_0-e_文字
 62
    7
 10
1075.1284291100376
 20
706.72882272233596
 40
9
 41
1
 50
0
  1
PBt=12.5
  0
TEXT
  8
_0-e_文字
 62
    7
 10
984.62851691628816
 20
703.50189410578992
 40
9
 41
1
 50
0
  1
防風シート
  0
SOLID
  8
_0-f_
  6
CONTINUOUS
 62
    7
 10
216.38321182568404
 20
351.52316987192091
 11
206.85821182568418
 21
348.97095381401454
 12
206.85821182568418
 22
354.07538592982746
 13
206.85821182568418
 23
354.07538592982746
  0
LINE
  8
_0-f_
  6
CONTINUOUS
 62
    7
 10
192.1051918220835
 20
351.52316987192091
 11
216.38321182568404
 21
351.52316987192091
  0
LINE
  8
_0-d_寸法
  6
CONTINUOUS
 62
   18
 10
231.60519182208373
 20
229.34360430203117
 11
231.60519182208373
 21
234.11360428426133
  0
LINE
  8
_0-d_寸法
  6
CONTINUOUS
 62
   18
 10
231.60509182208364
 20
334.343604302031
 11
231.60509182208364
 21
339.11360428426133
  0
LINE
  8
_0-d_寸法
  6
CONTINUOUS
 62
   18
 10
231.60509182208364
 20
229.34360430203117
 11
231.60509182208364
 21
334.343604302031
  0
LINE
  8
_0-d_寸法
  6
CONTINUOUS
 62
   18
 10
231.60519182208373
 20
329.57360431980067
 11
231.60519182208373
 21
334.343604302031
  0
LINE
  8
_0-d_寸法
  6
CONTINUOUS
 62
   18
 10
231.60519182208373
 20
343.343604302031
 11
231.60519182208373
 21
361.343604302031
  0
CIRCLE
  8
_0-d_寸法
  6
CONTINUOUS
 62
   18
 10
231.60519182208373
 20
343.343604302031
 40
1.7254760742187489
  0
LINE
  8
_0-d_寸法
  6
CONTINUOUS
 62
   18
 10
231.60519182208373
 20
334.343604302031
 11
231.60519182208373
 21
343.343604302031
  0
LINE
  8
_0-d_寸法
  6
CONTINUOUS
 62
   18
 10
241.60509182208375
 20
343.343604302031
 11
225.60519184443547
 21
343.343604302031
  0
LINE
  8
_0-d_寸法
  6
CONTINUOUS
 62
   18
 10
231.60519182208373
 20
361.343604302031
 11
231.60519182208373
 21
375.34360430203105
  0
CIRCLE
  8
_0-d_寸法
  6
CONTINUOUS
 62
   18
 10
231.60519182208373
 20
361.343604302031
 40
1.7254760742187489
  0
LINE
  8
_0-d_寸法
  6
CONTINUOUS
 62
   18
 10
231.60519182208373
 20
375.34360430203105
 11
231.60519182208373
 21
380.11360428426138
  0
CIRCLE
  8
_0-d_寸法
  6
CONTINUOUS
 62
   18
 10
231.60519182208373
 20
375.34360430203105
 40
1.7254760742187489
  0
LINE
  8
_0-d_寸法
  6
CONTINUOUS
 62
   18
 10
241.60509182208375
 20
375.34360430203105
 11
225.60519184443547
 21
375.34360430203105
  0
LINE
  8
_0-d_寸法
  6
CONTINUOUS
 62
   18
 10
241.60509182208375
 20
361.343604302031
 11
225.60519184443547
 21
361.343604302031
  0
TEXT
  8
_0-e_文字
 62
    4
 10
833.67258633772667
 20
702.09786936538887
 40
7.5000000000000853
 41
0.9999999999999797
 50
0
  1
(建築工事)
  0
TEXT
  8
_0-e_文字
 62
    4
 10
1078.4965732352639
 20
696.77795649154859
 40
7.5000000000000853
 41
0.9999999999999797
 50
0
  1
(建築工事)
  0
TEXT
  8
_0-e_文字
 62
    4
 10
993.0762864046178
 20
695.01717332500834
 40
7.4999999999998295
 41
1.0000000000000138
 50
0
  1
(建築工事)
  0
LINE
  8
_0-3_雑工事
  6
CONTINUOUS
 62
    7
 10
367.60509182208375
 20
331.343604302031
 11
367.60509182208375
 21
341.34360430203094
  0
LINE
  8
_0-3_雑工事
  6
CONTINUOUS
 62
    7
 10
367.60509182208375
 20
341.34360430203094
 11
366.60509182208364
 21
340.343604302031
  0
LINE
  8
_0-3_雑工事
  6
CONTINUOUS
 62
    7
 10
366.60509182208364
 20
340.343604302031
 11
360.30509182208374
 21
340.343604302031
  0
LINE
  8
_0-3_雑工事
  6
CONTINUOUS
 62
    7
 10
360.30509182208374
 20
340.343604302031
 11
357.60509182208364
 21
343.343604302031
  0
LINE
  8
_0-3_雑工事
  6
CONTINUOUS
 62
    7
 10
357.60509182208364
 20
343.343604302031
 11
357.60509182208364
 21
331.343604302031
  0
LINE
  8
_0-3_雑工事
  6
CONTINUOUS
 62
    7
 10
357.60509182208364
 20
331.343604302031
 11
367.60509182208375
 21
331.343604302031
  0
LINE
  8
_0-d_寸法
  6
CONTINUOUS
 62
   18
 10
471.60509182208386
 20
238.343604302031
 11
471.60509182208386
 21
343.343604302031
  0
CIRCLE
  8
_0-d_寸法
  6
CONTINUOUS
 62
   18
 10
471.60509182208386
 20
238.343604302031
 40
1.7254760742187489
  0
LINE
  8
_0-d_寸法
  6
CONTINUOUS
 62
   18
 10
471.60509182208386
 20
209.84360430203117
 11
471.60509182208386
 21
238.343604302031
  0
LINE
  8
_0-d_寸法
  6
CONTINUOUS
 62
   18
 10
471.60509182208386
 20
343.343604302031
 11
471.60509182208386
 21
383.34360430203094
  0
CIRCLE
  8
_0-d_寸法
  6
CONTINUOUS
 62
   18
 10
471.60509182208386
 20
343.343604302031
 40
1.7254760742187489
  0
LINE
  8
_0-d_寸法
  6
CONTINUOUS
 62
   18
 10
471.60509182208386
 20
383.34360430203094
 11
471.60509182208386
 21
388.11360428426144
  0
CIRCLE
  8
_0-d_寸法
  6
CONTINUOUS
 62
   18
 10
471.60509182208386
 20
383.34360430203094
 40
1.7254760742187489
  0
LINE
  8
_0-d_寸法
  6
CONTINUOUS
 62
   18
 10
387.37509180431425
 20
383.34360430203094
 11
477.60509179973189
 21
383.34360430203094
  0
LINE
  8
_0-d_寸法
  6
CONTINUOUS
 62
   18
 10
444.70209182208362
 20
343.343604302031
 11
444.70209182208362
 21
281.5016043109157
  0
LINE
  8
_0-d_寸法
  6
CONTINUOUS
 62
   18
 10
444.70209182208362
 20
281.5016043109157
 11
444.70209182208362
 21
238.343604302031
  0
CIRCLE
  8
_0-d_寸法
  6
CONTINUOUS
 62
   18
 10
444.70209182208362
 20
238.343604302031
 40
1.7254760742187489
  0
LINE
  8
_0-d_寸法
  6
CONTINUOUS
 62
   18
 10
451.37509180431402
 20
238.343604302031
 11
477.60509179973189
 21
238.343604302031
  0
LINE
  8
_0-d_寸法
  6
CONTINUOUS
 62
   18
 10
451.37509180431402
 20
343.343604302031
 11
477.60509179973189
 21
343.343604302031
  0
LINE
  8
_0-d_寸法
  6
CONTINUOUS
 62
   18
 10
444.70209182208362
 20
348.11360428426133
 11
444.70209182208362
 21
343.343604302031
  0
LINE
  8
_0-d_寸法
  6
CONTINUOUS
 62
   18
 10
442.97209180431412
 20
343.343604302031
 11
450.70209179973205
 21
343.343604302031
  0
CIRCLE
  8
_0-d_寸法
  6
CONTINUOUS
 62
   18
 10
444.70209182208362
 20
343.343604302031
 40
1.7254760742187489
  0
LINE
  8
_0-d_寸法
  6
CONTINUOUS
 62
   18
 10
444.70209182208362
 20
238.343604302031
 11
444.70209182208362
 21
233.57360431980067
  0
LINE
  8
_0-d_寸法
  6
CONTINUOUS
 62
   18
 10
446.47209180431395
 20
238.343604302031
 11
450.70209179973205
 21
238.343604302031
  0
LINE
  8
_0-e_文字
  6
CONTINUOUS
 62
    7
 10
445.49899331010073
 20
358.44744759012951
 11
400.99899331010045
 21
358.44744759012951
  0
LINE
  8
_0-e_文字
  6
CONTINUOUS
 62
    7
 10
400.99899331010045
 20
370.31822099704152
 11
445.49899331010073
 21
370.31822099704152
  0
LINE
  8
_0-e_文字
  6
CONTINUOUS
 62
    7
 10
400.99899331010045
 20
358.44744759012951
 11
400.99899331010045
 21
370.31822099704152
  0
LINE
  8
_0-e_文字
  6
CONTINUOUS
 62
    7
 10
445.49899331010073
 20
370.31822099704152
 11
445.49899331010073
 21
358.44744759012951
  0
LINE
  8
_0-e_文字
  6
CONTINUOUS
 62
    7
 10
445.49899331010073
 20
228.49678545541579
 11
445.49899331010073
 21
216.62601204850353
  0
LINE
  8
_0-e_文字
  6
CONTINUOUS
 62
    7
 10
445.49899331010073
 20
216.62601204850353
 11
400.99899331010045
 21
216.62601204850353
  0
LINE
  8
_0-e_文字
  6
CONTINUOUS
 62
    7
 10
400.99899331010045
 20
228.49678545541579
 11
445.49899331010073
 21
228.49678545541579
  0
LINE
  8
ADD_LINE
  6
DOT
 62
    9
 10
447.85846496134343
 20
364.38283429358552
 11
400.99899331010045
 21
364.38283429358552
  0
LINE
  8
_0-e_文字
  6
CONTINUOUS
 62
    7
 10
400.99899331010045
 20
216.62601204850353
 11
400.99899331010045
 21
219.46747924610003
  0
LINE
  8
_0-e_文字
  6
CONTINUOUS
 62
    7
 10
400.99899331010045
 20
219.46747924610003
 11
400.99899331010045
 21
228.49678545541579
  0
LINE
  8
ADD_LINE
  6
DOT
 62
    9
 10
445.49899331010073
 20
222.56139875195953
 11
400.99899331010045
 21
222.56139875195953
  0
LINE
  8
ADD_LINE
  6
DOT
 62
    9
 10
423.2489933101005
 20
228.49678545541579
 11
423.2489933101005
 21
216.62601204850353
  0
LINE
  8
ADD_LINE
  6
DOT
 62
    9
 10
423.2489933101005
 20
370.31822099704152
 11
423.2489933101005
 21
358.44744759012951
  0
LINE
  8
_0-2_造作工事
  6
CONTINUOUS
 62
    7
 10
357.60509182208364
 20
331.343604302031
 11
357.60509182208364
 21
251.3436043020312
  0
LINE
  8
_0-1_躯体
  6
CONTINUOUS
 62
    7
 10
252.60509182208364
 20
343.343604302031
 11
252.60509182208364
 21
238.343604302031
  0
LINE
  8
_0-1_躯体
  6
CONTINUOUS
 62
    7
 10
357.60509182208364
 20
238.343604302031
 11
252.60509182208364
 21
238.343604302031
  0
LINE
  8
_0-1_躯体
  6
CONTINUOUS
 62
   18
 10
252.60509182208364
 20
238.343604302031
 11
357.60509182208364
 21
343.343604302031
  0
LINE
  8
_0-1_躯体
  6
CONTINUOUS
 62
   18
 10
357.60509182208364
 20
238.343604302031
 11
252.60509182208364
 21
343.343604302031
  0
LINE
  8
_0-d_寸法
  6
CONTINUOUS
 62
   18
 10
231.60519182208373
 20
218.843604302031
 11
231.60519182208373
 21
228.84360430203094
  0
LINE
  8
_0-d_寸法
  6
CONTINUOUS
 62
   18
 10
231.60519182208373
 20
228.84360430203094
 11
231.60519182208373
 21
238.343604302031
  0
CIRCLE
  8
_0-d_寸法
  6
CONTINUOUS
 62
   18
 10
231.60519182208373
 20
238.343604302031
 40
1.7254760742187489
  0
LINE
  8
_0-d_寸法
  6
CONTINUOUS
 62
   18
 10
241.60509182208375
 20
238.343604302031
 11
225.60509184443538
 21
238.343604302031
  0
LINE
  8
_0-d_寸法
  6
CONTINUOUS
 62
   18
 10
231.60509182208364
 20
233.57360431980067
 11
231.60509182208364
 21
238.343604302031
  0
CIRCLE
  8
_0-d_寸法
  6
CONTINUOUS
 62
   18
 10
231.60509182208364
 20
238.343604302031
 40
1.7254760742187489
  0
CIRCLE
  8
_0-d_寸法
  6
CONTINUOUS
 62
   18
 10
231.60519182208373
 20
225.84360430203094
 40
1.7254760742187489
  0
LINE
  8
_0-d_寸法
  6
CONTINUOUS
 62
   18
 10
241.60509182208375
 20
225.84360430203094
 11
225.60519184443547
 21
225.84360430203094
  0
LINE
  8
_0-1_躯体
  6
CONTINUOUS
 62
    7
 10
369.60509182208364
 20
238.343604302031
 11
241.60509182208375
 21
238.343604302031
  0
LINE
  8
_0-d_寸法
  6
CONTINUOUS
 62
   18
 10
471.60509182208386
 20
212.57360431980067
 11
471.60509182208386
 21
217.34360430203117
  0
LINE
  8
_0-d_寸法
  6
CONTINUOUS
 62
   18
 10
451.37509180431402
 20
215.843604302031
 11
477.60509179973189
 21
215.843604302031
  0
CIRCLE
  8
_0-d_寸法
  6
CONTINUOUS
 62
   18
 10
471.60509182208386
 20
215.843604302031
 40
1.7254760742187489
  0
LINE
  8
_0-d_寸法
  6
CONTINUOUS
 62
   18
 10
231.60519182208373
 20
202.79464830203111
 11
231.60519182208373
 21
217.34360430203117
  0
LINE
  8
_0-d_寸法
  6
CONTINUOUS
 62
   18
 10
241.60509182208375
 20
215.843604302031
 11
225.60519184443547
 21
215.843604302031
  0
CIRCLE
  8
_0-d_寸法
  6
CONTINUOUS
 62
   18
 10
231.60519182208373
 20
215.843604302031
 40
1.7254760742187489
  0
LINE
  8
_0-1_躯体
  6
CONTINUOUS
 62
    7
 10
327.88048115132619
 20
361.343604302031
 11
241.60509182208375
 21
361.343604302031
  0
TEXT
  8
_0-e_文字
 62
    7
 10
1073.6748432145628
 20
628.91163358906988
 40
9
 41
1
 50
0
  1
気密シート
  0
LINE
  8
_0-7_ハッチ
  6
CONTINUOUS
 62
   18
 10
339.09215307410625
 20
361.343604302031
 11
330.60509182208364
 21
369.83066555405327
  0
LINE
  8
_0-7_ハッチ
  6
CONTINUOUS
 62
   18
 10
337.67793951173326
 20
361.343604302031
 11
330.60509182208364
 21
368.41645199168028
  0
LINE
  8
_0-7_ハッチ
  6
CONTINUOUS
 62
   18
 10
340.50636663647924
 20
361.343604302031
 11
330.60509182208364
 21
371.24487911642643
  0
LINE
  8
_0-7_ハッチ
  6
CONTINUOUS
 62
   18
 10
341.92058019885258
 20
361.343604302031
 11
330.60509182208364
 21
372.6590926787996
  0
LINE
  8
_0-7_ハッチ
  6
CONTINUOUS
 62
   18
 10
334.84951238698727
 20
361.343604302031
 11
330.60509182208364
 21
365.58802486693395
  0
LINE
  8
_0-7_ハッチ
  6
CONTINUOUS
 62
   18
 10
336.26372594935992
 20
361.343604302031
 11
330.60509182208364
 21
367.00223842930711
  0
SOLID
  8
_0-f_
  6
CONTINUOUS
 62
    7
 10
336.35488504593945
 20
374.70446914800908
 11
329.50485495197063
 21
381.7978829606916
 12
333.96929187421574
 22
384.27256075633198
 13
333.96929187421574
 23
384.27256075633198
  0
TEXT
  8
_0-e_文字
 62
    4
 10
1079.2114512008791
 20
620.21679268374783
 40
7.4999999999999574
 41
1.0000000000000031
 50
0
  1
(建築工事)
  0
TEXT
  8
_0-e_文字
 62
    7
 10
988.18886938907644
 20
616.26088142192066
 40
9
 41
1
 50
0
  1
変成シリコーン
  0
LINE
  8
_0-7_ハッチ
  6
CONTINUOUS
 62
   18
 10
332.02108526224077
 20
361.343604302031
 11
330.60509182208398
 21
362.75959774218779
  0
LINE
  8
_0-7_ハッチ
  6
CONTINUOUS
 62
   18
 10
333.43529882461411
 20
361.343604302031
 11
330.60509182208398
 21
364.17381130456079
  0
TEXT
  8
_0-e_文字
 62
    7
 10
995.79188219215348
 20
606.87480934783696
 40
9
 41
1
 50
0
  1
シーリング
  0
LINE
  8
_0-0_本体
  6
CONTINUOUS
 62
   18
 10
399.46067959060383
 20
343.50160431091575
 11
401.60509182208369
 21
301.50160431091575
  0
LINE
  8
_0-0_本体
  6
CONTINUOUS
 62
   18
 10
401.60509182208369
 20
301.50160431091575
 11
420.60509182208381
 21
301.50160431091575
  0
LINE
  8
_0-0_本体
  6
CONTINUOUS
 62
   18
 10
420.60509182208381
 20
298.50160431091575
 11
420.60509182208381
 21
301.50160431091575
  0
LINE
  8
_0-0_本体
  6
CONTINUOUS
 62
   18
 10
415.60509182208375
 20
298.50160431091575
 11
420.60509182208381
 21
298.50160431091575
  0
LINE
  8
_0-0_本体
  6
CONTINUOUS
 62
    7
 10
399.40474993924545
 20
297.2516043109157
 11
411.10509182208375
 21
297.2516043109157
  0
ARC
  8
_0-0_本体
  6
CONTINUOUS
 62
    7
 10
400.15474993924545
 20
297.95464995825319
 40
1.5000000000000231
 50
124.03632353746862
 51
180
  0
LINE
  8
_0-0_本体
  6
CONTINUOUS
 62
    7
 10
400.78046545870279
 20
299.95418553717138
 11
400.04085182455606
 21
299.60992691668253
  0
ARC
  8
_0-0_本体
  6
CONTINUOUS
 62
    7
 10
399.40474993924545
 20
298.0016043109157
 40
0.75
 50
180
 51
270
  0
LINE
  8
_0-0_本体
  6
CONTINUOUS
 62
    7
 10
400.04085182455606
 20
299.60992691668253
 11
399.33079588960493
 21
299.20822691066201
  0
LINE
  8
_0-0_本体
  6
CONTINUOUS
 62
    7
 10
419.85509182208381
 20
300.75160431091575
 11
404.75474993924536
 21
300.75160431091575
  0
ARC
  8
_0-0_本体
  6
CONTINUOUS
 62
    7
 10
411.10509182208375
 20
296.00160431091581
 40
1.25
 50
0
 51
90
  0
LINE
  8
_0-0_本体
  6
CONTINUOUS
 62
    7
 10
412.35509182208381
 20
295.50160431091575
 11
412.35509182208381
 21
296.00160431091581
  0
LINE
  8
_0-0_本体
  6
CONTINUOUS
 62
    7
 10
414.85509182208375
 20
295.50160431091575
 11
414.85509182208375
 21
300.75160431091575
  0
LINE
  8
_0-0_本体
  6
CONTINUOUS
 62
    7
 10
419.85509182208381
 20
299.00177525233482
 11
419.85509182208381
 21
300.75160431091575
  0
ARC
  8
_0-0_本体
  6
CONTINUOUS
 62
    7
 10
413.60509182208369
 20
295.50160431091575
 40
1.25
 50
180
 51
270
  0
ARC
  8
_0-0_本体
  6
CONTINUOUS
 62
    7
 10
413.60509182208369
 20
295.50160431091575
 40
1.25
 50
270
 51
0
  0
LINE
  8
ADD_LINE
  6
DOT
 62
    9
 10
367.60509182208375
 20
240.34360430203105
 11
367.60509182208375
 21
237.12537452415123
  0
LINE
  8
_0-0_本体
  6
CONTINUOUS
 62
    7
 10
402.32965907970146
 20
300.46211787192499
 11
401.54499917010469
 21
300.23884415679521
  0
LINE
  8
_0-0_本体
  6
CONTINUOUS
 62
    7
 10
401.54499917010469
 20
300.23884415679521
 11
400.78046545870279
 21
299.95418553717138
  0
LINE
  8
_0-0_本体
  6
CONTINUOUS
 62
    7
 10
403.12952511051776
 20
300.62260668257159
 11
402.32965907970146
 21
300.46211787192499
  0
LINE
  8
_0-0_本体
  6
CONTINUOUS
 62
    7
 10
404.75474993924536
 20
300.75160431091575
 11
403.93958183817188
 21
300.71930427084806
  0
LINE
  8
_0-0_本体
  6
CONTINUOUS
 62
    7
 10
403.93958183817188
 20
300.71930427084806
 11
403.12952511051776
 21
300.62260668257159
  0
LINE
  8
_0-0_本体
  6
CONTINUOUS
 62
   18
 10
411.60509182208381
 20
240.34360430203105
 11
411.60509182208381
 21
296.34360430203094
  0
ARC
  8
_0-0_本体
  6
CONTINUOUS
 62
   18
 10
409.60509182208375
 20
240.34360430203105
 40
2
 50
270
 51
0
  0
LINE
  8
_0-0_本体
  6
CONTINUOUS
 62
   18
 10
369.60509182208364
 20
238.343604302031
 11
409.60509182208375
 21
238.343604302031
  0
ARC
  8
_0-0_本体
  6
CONTINUOUS
 62
   18
 10
369.60509182208364
 20
240.34360430203105
 40
2
 50
180
 51
270
  0
LINE
  8
_0-0_本体
  6
CONTINUOUS
 62
   18
 10
367.60509182208375
 20
341.34360430203111
 11
367.60509182208375
 21
240.34360430203105
  0
ARC
  8
_0-0_本体
  6
CONTINUOUS
 62
   18
 10
369.60509182208364
 20
341.34360430203111
 40
2
 50
90
 51
180
  0
LINE
  8
_0-0_本体
  6
CONTINUOUS
 62
   18
 10
394.60509182208375
 20
343.343604302031
 11
369.60509182208364
 21
343.343604302031
  0
ARC
  8
_0-0_本体
  6
CONTINUOUS
 62
   18
 10
394.60509182208375
 20
341.34360430203111
 40
2
 50
0
 51
90.000000000000014
  0
LINE
  8
_0-0_本体
  6
CONTINUOUS
 62
   18
 10
396.60509182208364
 20
341.34360430203111
 11
396.60509182208364
 21
296.34360430203094
  0
LINE
  8
_0-0_本体
  6
CONTINUOUS
 62
   18
 10
411.60509182208381
 20
296.34360430203094
 11
396.60509182208364
 21
296.34360430203094
  0
LINE
  8
_0-0_本体
  6
CONTINUOUS
 62
   18
 10
390.60509182208364
 20
238.343604302031
 11
402.34074656493198
 21
238.343604302031
  0
LINE
  8
_0-0_本体
  6
CONTINUOUS
 62
   18
 10
402.34074656493198
 20
238.343604302031
 11
502.60509182208375
 21
238.343604302031
  0
LINE
  8
_0-3_雑工事
  6
CONTINUOUS
 62
    7
 10
330.60509182208364
 20
375.34360430203105
 11
330.60509182208364
 21
361.343604302031
  0
LINE
  8
_0-3_雑工事
  6
CONTINUOUS
 62
    7
 10
342.60509182208364
 20
361.343604302031
 11
342.60509182208364
 21
375.34360430203105
  0
LINE
  8
_0-3_雑工事
  6
CONTINUOUS
 62
    7
 10
330.60509182208364
 20
361.343604302031
 11
342.60509182208364
 21
361.343604302031
  0
LINE
  8
_0-1_躯体
  6
CONTINUOUS
 62
    7
 10
330.60509182208364
 20
375.34360430203105
 11
241.60509182208375
 21
375.34360430203105
  0
LINE
  8
_0-7_ハッチ
  6
CONTINUOUS
 62
   18
 10
340.09097661283079
 20
361.34360430203151
 11
342.60509182208364
 21
363.85771951128424
  0
LINE
  8
_0-7_ハッチ
  6
CONTINUOUS
 62
   18
 10
335.84833592571215
 20
361.343604302031
 11
342.60509182208364
 21
368.1003601984018
  0
LINE
  8
_0-7_ハッチ
  6
CONTINUOUS
 62
   18
 10
338.67676305045796
 20
361.34360430203151
 11
342.60509182208364
 21
365.27193307365684
  0
LINE
  8
_0-7_ハッチ
  6
CONTINUOUS
 62
   18
 10
337.26254948808514
 20
361.34360430203117
 11
342.60509182208364
 21
366.68614663602949
  0
LINE
  8
_0-7_ハッチ
  6
CONTINUOUS
 62
   18
 10
342.60509182208364
 20
362.07330624117276
 11
330.60509182208364
 21
374.07330624117259
  0
LINE
  8
_0-7_ハッチ
  6
CONTINUOUS
 62
   18
 10
330.60509182208364
 20
361.75721444789446
 11
342.60509182208364
 21
373.75721444789463
  0
LINE
  8
_0-7_ハッチ
  6
CONTINUOUS
 62
   18
 10
331.60569523859317
 20
361.343604302031
 11
342.60509182208364
 21
372.34300088552146
  0
LINE
  8
_0-7_ハッチ
  6
CONTINUOUS
 62
   18
 10
334.4341223633395
 20
361.343604302031
 11
342.60509182208364
 21
369.51457376077531
  0
LINE
  8
_0-7_ハッチ
  6
CONTINUOUS
 62
   18
 10
333.0199088009665
 20
361.343604302031
 11
342.60509182208364
 21
370.92878732314847
  0
LINE
  8
_0-3_雑工事
  6
CONTINUOUS
 62
    7
 10
332.4050918220837
 20
373.343604302031
 11
330.60509182208364
 21
375.34360430203105
  0
LINE
  8
_0-7_ハッチ
  6
CONTINUOUS
 62
    7
 10
340.80509182208374
 20
373.343604302031
 11
332.4050918220837
 21
373.343604302031
  0
LINE
  8
_0-7_ハッチ
  6
CONTINUOUS
 62
   18
 10
342.60509182208364
 20
363.48751980354575
 11
332.74900732359856
 21
373.343604302031
  0
LINE
  8
_0-7_ハッチ
  6
CONTINUOUS
 62
   18
 10
330.60509182208364
 20
370.24249582213292
 11
333.70620030198188
 21
373.343604302031
  0
LINE
  8
_0-7_ハッチ
  6
CONTINUOUS
 62
   18
 10
342.60509182208364
 20
364.90173336591897
 11
334.16322088597155
 21
373.343604302031
  0
LINE
  8
_0-7_ハッチ
  6
CONTINUOUS
 62
   18
 10
330.60509182208364
 20
368.8282822597601
 11
335.1204138643547
 21
373.343604302031
  0
LINE
  8
_0-7_ハッチ
  6
CONTINUOUS
 62
   18
 10
342.60509182208364
 20
366.31594692829208
 11
335.57743444834472
 21
373.343604302031
  0
LINE
  8
_0-7_ハッチ
  6
CONTINUOUS
 62
   18
 10
330.60509182208364
 20
367.41406869738694
 11
336.53462742672787
 21
373.343604302031
  0
LINE
  8
_0-7_ハッチ
  6
CONTINUOUS
 62
   18
 10
330.60509182208364
 20
365.99985513501395
 11
337.94884098910086
 21
373.343604302031
  0
LINE
  8
_0-7_ハッチ
  6
CONTINUOUS
 62
   18
 10
342.60509182208364
 20
369.14437405303823
 11
338.40586157309087
 21
373.343604302031
  0
LINE
  8
_0-7_ハッチ
  6
CONTINUOUS
 62
   18
 10
342.60509182208364
 20
370.55858761541123
 11
339.82007513546404
 21
373.343604302031
  0
LINE
  8
_0-7_ハッチ
  6
CONTINUOUS
 62
   18
 10
330.60509182208364
 20
364.58564157264078
 11
339.36305455147402
 21
373.343604302031
  0
LINE
  8
_0-7_ハッチ
  6
CONTINUOUS
 62
   18
 10
342.60509182208364
 20
367.73016049066507
 11
336.99164801071788
 21
373.343604302031
  0
LINE
  8
_0-7_ハッチ
  6
CONTINUOUS
 62
   18
 10
342.60509182208364
 20
371.97280117778439
 11
341.00577840584219
 21
373.572114594026
  0
LINE
  8
_0-7_ハッチ
  6
CONTINUOUS
 62
   18
 10
341.05550519621255
 20
373.62184138439653
 11
342.60509182208364
 21
375.1714280102675
  0
LINE
  8
_0-7_ハッチ
  6
CONTINUOUS
 62
   18
 10
342.60509182208364
 20
373.38701474015755
 11
341.67828624014362
 21
374.31382032209757
  0
LINE
  8
_0-7_ハッチ
  6
CONTINUOUS
 62
   18
 10
342.60509182208364
 20
374.80122830253055
 11
342.34817687495206
 21
375.05814324966246
  0
LINE
  8
_0-7_ハッチ
  6
CONTINUOUS
 62
   18
 10
330.60509182208364
 20
363.17142801026762
 11
340.77726811384719
 21
373.343604302031
  0
LINE
  8
_0-7_ハッチ
  6
CONTINUOUS
 62
   18
 10
330.60509182208364
 20
371.65670938450592
 11
332.35151573038502
 21
373.4031332928073
  0
LINE
  8
_0-7_ハッチ
  6
CONTINUOUS
 62
   18
 10
330.60509182208364
 20
373.07092294687908
 11
331.68162509557692
 21
374.14745622037208
  0
LINE
  8
_0-7_ハッチ
  6
CONTINUOUS
 62
   18
 10
330.60509182208364
 20
374.48513650925207
 11
331.01173446076848
 21
374.89177914793692
  0
LINE
  8
_0-2_造作工事
  6
CONTINUOUS
 62
    7
 10
342.60509182208364
 20
343.343604302031
 11
342.60509182208364
 21
383.34360430203094
  0
LINE
  8
_0-2_造作工事
  6
CONTINUOUS
 62
    7
 10
342.60509182208364
 20
343.343604302031
 11
377.60509182208369
 21
343.343604302031
  0
LINE
  8
_0-2_造作工事
  6
CONTINUOUS
 62
    7
 10
377.60509182208369
 20
343.343604302031
 11
377.60509182208369
 21
383.34360430203094
  0
LINE
  8
_0-2_造作工事
  6
CONTINUOUS
 62
    7
 10
342.60509182208364
 20
383.34360430203094
 11
377.60509182208369
 21
383.34360430203094
  0
LINE
  8
_0-7_ハッチ
  6
CONTINUOUS
 62
   18
 10
344.89313583265169
 20
383.34360430203094
 11
342.60509182208364
 21
381.05556029146288
  0
LINE
  8
_0-7_ハッチ
  6
CONTINUOUS
 62
   18
 10
351.96420364451717
 20
383.34360430203094
 11
342.60509182208364
 21
373.98449247959741
  0
LINE
  8
_0-7_ハッチ
  6
CONTINUOUS
 62
   18
 10
359.03527145638282
 20
383.34360430203094
 11
342.60509182208364
 21
366.91342466773193
  0
LINE
  8
_0-7_ハッチ
  6
CONTINUOUS
 62
   18
 10
366.10633926824812
 20
383.34360430203094
 11
342.60509182208364
 21
359.84235685586646
  0
LINE
  8
_0-7_ハッチ
  6
CONTINUOUS
 62
   18
 10
373.1774070801136
 20
383.34360430203094
 11
342.60509182208364
 21
352.77128904400098
  0
LINE
  8
_0-7_ハッチ
  6
CONTINUOUS
 62
   18
 10
377.60509182208369
 20
380.70022123213556
 11
342.60509182208364
 21
345.7002212321355
  0
LINE
  8
_0-7_ハッチ
  6
CONTINUOUS
 62
   18
 10
377.60509182208369
 20
345.34488217280818
 11
375.60381395130651
 21
343.343604302031
  0
LINE
  8
_0-7_ハッチ
  6
CONTINUOUS
 62
   18
 10
377.60509182208369
 20
366.55808560840461
 11
354.39061051571025
 21
343.343604302031
  0
LINE
  8
_0-7_ハッチ
  6
CONTINUOUS
 62
   18
 10
377.60509182208369
 20
359.48701779653913
 11
361.46167832757556
 21
343.343604302031
  0
LINE
  8
_0-7_ハッチ
  6
CONTINUOUS
 62
   18
 10
377.60509182208369
 20
352.41594998467366
 11
368.5327461394412
 21
343.343604302031
  0
LINE
  8
_0-7_ハッチ
  6
CONTINUOUS
 62
   18
 10
377.60509182208369
 20
373.62915342027009
 11
347.3195427038446
 21
343.343604302031
  0
LINE
  8
_0-7_ハッチ
  6
CONTINUOUS
 62
   18
 10
362.87627982183403
 20
198.07241630228089
 11
362.60509182208369
 21
197.80122830253072
  0
SOLID
  8
_0-f_
  6
CONTINUOUS
 62
    7
 10
349.38450635691606
 20
383.51942988875697
 11
346.66644484256199
 21
392.9984368731632
 12
342.29109254423338
 22
390.3694599827258
 13
342.29109254423338
 23
390.3694599827258
  0
SOLID
  8
_0-f_
  6
CONTINUOUS
 62
    7
 10
216.38321182568404
 20
368.80121974649859
 11
206.85821182568418
 21
366.2490036885921
 12
206.85821182568418
 22
371.35343580440497
 13
206.85821182568418
 23
371.35343580440497
  0
LINE
  8
_0-f_
  6
CONTINUOUS
 62
    7
 10
192.1051918220835
 20
368.80121974649859
 11
216.38321182568404
 21
368.80121974649859
  0
TEXT
  8
_0-e_文字
 62
    7
 10
827.02527075812282
 20
602.3664259927798
 40
9
 41
1
 50
0
  1
防水シート
  0
TEXT
  8
_0-e_文字
 62
    4
 10
1001.2697974062517
 20
598.55325447382143
 40
7.5000000000000853
 41
0.9999999999999932
 50
0
  1
(建築工事)
  0
TEXT
  8
_0-e_文字
 62
    4
 10
835.9486920443411
 20
591.21900565745909
 40
7.4999999999998295
 41
1.0000000000000138
 50
0
  1
(建築工事)
  0
TEXT
  8
_0-e_文字
 62
    7
 10
1074.1595952049934
 20
583.70172902072261
 40
9
 41
1
 50
0
  1
バックアップ材
  0
LINE
  8
_0-3_雑工事
  6
CENTER1
 62
    7
 10
357.60509182208364
 20
341.843604302031
 11
241.60509182208375
 21
341.843604302031
  0
LINE
  8
_0-3_雑工事
  6
PHANTOM1
 62
    7
 10
377.60509182208369
 20
344.843604302031
 11
241.60509182208375
 21
344.843604302031
  0
SOLID
  8
_0-f_
  6
CONTINUOUS
 62
    7
 10
270.04178102105919
 20
344.843604302031
 11
267.32371950670529
 21
354.32261128643722
 12
262.94836720837702
 22
351.69363439599999
 13
262.94836720837702
 23
351.69363439599999
  0
LINE
  8
_0-f_
  6
CONTINUOUS
 62
    7
 10
210.15326173317487
 20
404.83710333832056
 11
235.40444345321635
 21
404.83710333832056
  0
LINE
  8
_0-f_
  6
CONTINUOUS
 62
    7
 10
235.40444345321635
 20
404.83710333832056
 11
270.04178102105919
 21
344.843604302031
  0
TEXT
  8
_0-e_文字
 62
    7
 10
835.69092814719943
 20
578.3314894608128
 40
9
 41
1
 50
0
  1
水切鉄板
  0
TEXT
  8
_0-e_文字
 62
    4
 10
1103.2531845568201
 20
574.33426894578224
 40
7.4999999999998295
 41
1.0000000000000138
 50
0
  1
(建築工事)
  0
LINE
  8
_0-f_
  6
CONTINUOUS
 62
    7
 10
298.73917374139205
 20
441.61458060054792
 11
315.84318307050785
 21
441.61458060054792
  0
LINE
  8
_0-f_
  6
CONTINUOUS
 62
    7
 10
315.84318307050785
 20
441.61458060054792
 11
349.38450635691606
 21
383.51942988875697
  0
LINE
  8
_0-f_
  6
CONTINUOUS
 62
    7
 10
298.74450598972658
 20
420.74054768094419
 11
309.77595510494939
 21
420.74054768094419
  0
LINE
  8
_0-f_
  6
CONTINUOUS
 62
    7
 10
309.77595510494939
 20
420.74054768094419
 11
336.35488504593945
 21
374.70446914800908
  0
SOLID
  8
_0-f_
  6
CONTINUOUS
 62
    7
 10
216.38321182568404
 20
232.87916382861101
 11
206.85821182568418
 21
230.32694777070463
 12
206.85821182568418
 22
235.43137988651756
 13
206.85821182568418
 23
235.43137988651756
  0
LINE
  8
_0-f_
  6
CONTINUOUS
 62
    7
 10
192.1051918220835
 20
232.87916382861101
 11
216.38321182568404
 21
232.87916382861101
  0
TEXT
  8
_0-e_文字
 62
    4
 10
835.6909281471992
 20
569.6658320717363
 40
7.5000000000000853
 41
0.9999999999999932
 50
0
  1
(建築工事)
  0
TEXT
  8
_0-e_文字
 62
    7
 10
1075.8160058531664
 20
566.06102940287792
 40
9
 41
1
 50
0
  1
断熱材
  0
SOLID
  8
_0-f_
  6
CONTINUOUS
 62
    7
 10
266.00609390053773
 20
236.85716056044842
 11
263.45387784263119
 21
227.33216056044847
 12
259.03330995844408
 22
229.88437661835485
 13
259.03330995844408
 23
229.88437661835485
  0
LINE
  8
_0-f_
  6
CONTINUOUS
 62
    7
 10
239.05538328821342
 20
190.17713871525234
 11
266.00609390053773
 21
236.85716056044842
  0
LINE
  8
_0-f_
  6
CONTINUOUS
 62
    7
 10
221.03895350910352
 20
190.17713871525234
 11
239.05538328821342
 21
190.17713871525234
  0
TEXT
  8
_0-e_文字
 62
    4
 10
1078.089245396071
 20
556.95299138114092
 40
7.4999999999998295
 41
1.0000000000000138
 50
0
  1
(建築工事)
  0
TEXT
  8
_0-e_文字
 62
    7
 10
266.20125636418504
 20
438.44398600198986
 40
9
 41
1.0000000000000027
 50
0
  1
外額縁
  0
LINE
  8
_0-7_ハッチ
  6
CONTINUOUS
 62
   18
 10
616.82079704114699
 20
342.36530952109433
 11
617.79909182208371
 21
341.3870147401575
  0
LINE
  8
_0-7_ハッチ
  6
CONTINUOUS
 62
   18
 10
617.52790382233343
 20
343.07241630228083
 11
617.79909182208371
 21
342.80122830253066
  0
LINE
  8
_0-7_ハッチ
  6
CONTINUOUS
 62
   18
 10
617.40542641149932
 20
334.70961233887647
 11
617.79909182208371
 21
334.31594692829202
  0
LINE
  8
_0-7_ハッチ
  6
CONTINUOUS
 62
   18
 10
615.53250497052704
 20
340.82517446696806
 11
617.79909182208371
 21
338.55858761541134
  0
LINE
  8
_0-7_ハッチ
  6
CONTINUOUS
 62
   18
 10
616.20239560533537
 20
341.56949739453279
 11
617.79909182208371
 21
339.97280117778433
  0
LINE
  8
_0-7_ハッチ
  6
CONTINUOUS
 62
   18
 10
613.18564801071784
 20
340.343604302031
 11
617.79909182208371
 21
335.73016049066518
  0
LINE
  8
_0-7_ハッチ
  6
CONTINUOUS
 62
   18
 10
607.79908357408954
 20
334.92998590817336
 11
613.21270196794728
 21
340.343604302031
  0
LINE
  8
_0-7_ハッチ
  6
CONTINUOUS
 62
   18
 10
614.59986157309095
 20
340.343604302031
 11
617.79909182208371
 21
337.14437405303818
  0
LINE
  8
_0-7_ハッチ
  6
CONTINUOUS
 62
   18
 10
611.77143444834473
 20
340.343604302031
 11
617.40542641149932
 21
334.70961233887647
  0
LINE
  8
_0-7_ハッチ
  6
CONTINUOUS
 62
   18
 10
607.79908357408954
 20
336.34419947054636
 11
611.79848840557429
 21
340.343604302031
  0
LINE
  8
_0-7_ハッチ
  6
CONTINUOUS
 62
   18
 10
607.79908357408954
 20
337.75841303291952
 11
610.38427484320107
 21
340.343604302031
  0
LINE
  8
_0-7_ハッチ
  6
CONTINUOUS
 62
   18
 10
607.79908357408954
 20
339.17262659529268
 11
608.88457655145589
 21
340.25811957265887
  0
LINE
  8
_0-7_ハッチ
  6
CONTINUOUS
 62
   18
 10
607.79908357408954
 20
340.58684015766568
 11
608.17746977026923
 21
340.96522635384537
  0
LINE
  8
_0-7_ハッチ
  6
CONTINUOUS
 62
   18
 10
610.35722088597163
 20
340.343604302031
 11
617.79909182208371
 21
332.90173336591886
  0
LINE
  8
_0-7_ハッチ
  6
CONTINUOUS
 62
   18
 10
608.94300732359852
 20
340.343604302031
 11
617.79909182208371
 21
331.48751980354587
  0
LINE
  8
_0-7_ハッチ
  6
CONTINUOUS
 62
   18
 10
611.28376977981293
 20
331.343604302031
 11
617.79909182208371
 21
337.85892634430195
  0
LINE
  8
_0-7_ハッチ
  6
CONTINUOUS
 62
   18
 10
612.69798334218569
 20
331.343604302031
 11
617.79909182208371
 21
336.44471278192896
  0
LINE
  8
_0-7_ハッチ
  6
CONTINUOUS
 62
   18
 10
608.45534265506649
 20
331.343604302031
 11
617.79909182208371
 21
340.68735346904811
  0
LINE
  8
_0-7_ハッチ
  6
CONTINUOUS
 62
   18
 10
607.79908357408954
 20
338.65910092679377
 11
615.11458019885231
 21
331.343604302031
  0
LINE
  8
_0-7_ハッチ
  6
CONTINUOUS
 62
   18
 10
607.79908357408954
 20
340.07331448916693
 11
616.52879376122542
 21
331.343604302031
  0
LINE
  8
_0-7_ハッチ
  6
CONTINUOUS
 62
   18
 10
607.79908357408954
 20
337.24488736442078
 11
613.7003666364792
 21
331.343604302031
  0
LINE
  8
_0-7_ハッチ
  6
CONTINUOUS
 62
   18
 10
607.79908357408954
 20
335.83067380204761
 11
612.2861530741061
 21
331.343604302031
  0
LINE
  8
_0-7_ハッチ
  6
CONTINUOUS
 62
   18
 10
607.79909182208371
 20
333.51578059379449
 11
614.62691553032028
 21
340.343604302031
  0
LINE
  8
_0-7_ハッチ
  6
CONTINUOUS
 62
   18
 10
607.79909182208371
 20
332.10156703142133
 11
617.79909182208371
 21
342.10156703142127
  0
LINE
  8
_0-7_ハッチ
  6
CONTINUOUS
 62
   18
 10
616.94062402930467
 20
331.343604302031
 11
617.79909182208371
 21
332.20207209480998
  0
LINE
  8
_0-7_ハッチ
  6
CONTINUOUS
 62
   18
 10
615.52641046693168
 20
331.343604302031
 11
617.79909182208371
 21
333.61628565718297
  0
LINE
  8
_0-7_ハッチ
  6
CONTINUOUS
 62
   18
 10
614.11219690455869
 20
331.343604302031
 11
617.79909182208371
 21
335.03049921955596
  0
LINE
  8
_0-7_ハッチ
  6
CONTINUOUS
 62
   18
 10
609.86955621743971
 20
331.343604302031
 11
617.79909182208371
 21
339.27313990667511
  0
LINE
  8
_0-7_ハッチ
  6
CONTINUOUS
 62
   18
 10
607.79909182208371
 20
331.58802486693384
 11
608.04351238698678
 21
331.343604302031
  0
LINE
  8
_0-7_ハッチ
  6
CONTINUOUS
 62
   18
 10
607.79908357408954
 20
320.98143139713
 11
617.79909182208371
 21
310.98142314913594
  0
LINE
  8
_0-7_ハッチ
  6
CONTINUOUS
 62
   18
 10
607.79908357408954
 20
318.86011105357051
 11
617.79909182208371
 21
308.86010280557628
  0
LINE
  8
_0-7_ハッチ
  6
CONTINUOUS
 62
   18
 10
607.79908357408954
 20
316.7387907100109
 11
617.79909182208371
 21
306.73878246201662
  0
LINE
  8
_0-7_ハッチ
  6
CONTINUOUS
 62
   18
 10
607.79908357408954
 20
314.61747036645119
 11
617.79909182208371
 21
304.61746211845718
  0
LINE
  8
_0-7_ハッチ
  6
CONTINUOUS
 62
   18
 10
607.79908357408954
 20
312.49615002289158
 11
617.79909182208371
 21
302.49614177489747
  0
LINE
  8
_0-7_ハッチ
  6
CONTINUOUS
 62
   18
 10
617.79909182208371
 20
320.98143139713
 11
607.79909182208371
 21
310.98143139713005
  0
LINE
  8
_0-7_ハッチ
  6
CONTINUOUS
 62
   18
 10
617.79909182208371
 20
318.86011105357051
 11
607.79909182208371
 21
308.86011105357045
  0
LINE
  8
_0-7_ハッチ
  6
CONTINUOUS
 62
   18
 10
617.79909182208371
 20
316.7387907100109
 11
607.79909182208371
 21
306.73879071001073
  0
LINE
  8
_0-7_ハッチ
  6
CONTINUOUS
 62
   18
 10
617.79909182208371
 20
314.61747036645119
 11
607.79909182208371
 21
304.61747036645124
  0
LINE
  8
_0-7_ハッチ
  6
CONTINUOUS
 62
   18
 10
617.79909182208371
 20
312.4961500228917
 11
607.79909182208371
 21
302.49615002289158
  0
LINE
  8
_0-7_ハッチ
  6
CONTINUOUS
 62
   18
 10
607.79908357408954
 20
310.37482967933204
 11
617.79909182208371
 21
300.37482143133786
  0
LINE
  8
_0-7_ハッチ
  6
CONTINUOUS
 62
   18
 10
617.79909182208371
 20
310.37482967933204
 11
607.79908357408965
 21
300.37482143133786
  0
LINE
  8
_0-7_ハッチ
  6
CONTINUOUS
 62
   18
 10
617.79909182208371
 20
308.25350933577238
 11
607.79908357408954
 21
298.25350108777815
  0
LINE
  8
_0-7_ハッチ
  6
CONTINUOUS
 62
   18
 10
607.79908357408954
 20
308.25350933577238
 11
617.79909182208371
 21
298.25350108777815
  0
LINE
  8
_0-7_ハッチ
  6
CONTINUOUS
 62
   18
 10
607.79908357408954
 20
306.13218899221272
 11
617.79909182208371
 21
296.13218074421866
  0
LINE
  8
_0-7_ハッチ
  6
CONTINUOUS
 62
   18
 10
607.79908357408954
 20
304.01086864865306
 11
617.79909182208371
 21
294.01086040065883
  0
LINE
  8
_0-7_ハッチ
  6
CONTINUOUS
 62
   18
 10
607.79908357408954
 20
301.8895483050934
 11
617.79909182208371
 21
291.88954005709923
  0
LINE
  8
_0-7_ハッチ
  6
CONTINUOUS
 62
   18
 10
607.79908357408954
 20
299.76822796153374
 11
617.79909182208371
 21
289.76821971353968
  0
LINE
  8
_0-7_ハッチ
  6
CONTINUOUS
 62
   18
 10
607.79908357408954
 20
297.64690761797431
 11
617.79909182208371
 21
287.64689936998002
  0
LINE
  8
_0-7_ハッチ
  6
CONTINUOUS
 62
   18
 10
617.79909182208371
 20
306.13218899221272
 11
607.79909182208371
 21
296.1321889922126
  0
LINE
  8
_0-7_ハッチ
  6
CONTINUOUS
 62
   18
 10
617.79909182208371
 20
304.01086864865306
 11
607.79909182208371
 21
294.01086864865295
  0
LINE
  8
_0-7_ハッチ
  6
CONTINUOUS
 62
   18
 10
617.79909182208371
 20
301.8895483050934
 11
607.79909182208371
 21
291.88954830509329
  0
LINE
  8
_0-7_ハッチ
  6
CONTINUOUS
 62
   18
 10
617.79909182208371
 20
299.76822796153374
 11
607.79909182208371
 21
289.76822796153385
  0
LINE
  8
_0-7_ハッチ
  6
CONTINUOUS
 62
   18
 10
617.79909182208371
 20
297.64690761797431
 11
607.79909182208371
 21
287.64690761797431
  0
LINE
  8
_0-7_ハッチ
  6
CONTINUOUS
 62
   18
 10
607.79908357408954
 20
295.52558727441459
 11
617.79909182208371
 21
285.52557902642059
  0
LINE
  8
_0-7_ハッチ
  6
CONTINUOUS
 62
   18
 10
617.79909182208371
 20
295.52558727441459
 11
607.79908357408965
 21
285.52557902642059
  0
LINE
  8
_0-7_ハッチ
  6
CONTINUOUS
 62
   18
 10
617.79909182208371
 20
293.40426693085499
 11
607.79908357408954
 21
283.4042586828607
  0
LINE
  8
_0-7_ハッチ
  6
CONTINUOUS
 62
   18
 10
607.79908357408954
 20
293.40426693085499
 11
617.79909182208371
 21
283.40425868286087
  0
LINE
  8
_0-7_ハッチ
  6
CONTINUOUS
 62
   18
 10
607.79908357408954
 20
291.28294658729527
 11
617.79909182208371
 21
281.28293833930127
  0
LINE
  8
_0-7_ハッチ
  6
CONTINUOUS
 62
   18
 10
607.79908357408954
 20
289.16162624373567
 11
617.79909182208371
 21
279.16161799574155
  0
LINE
  8
_0-7_ハッチ
  6
CONTINUOUS
 62
   18
 10
607.79908357408954
 20
287.04030590017595
 11
617.79909182208371
 21
277.04029765218195
  0
LINE
  8
_0-7_ハッチ
  6
CONTINUOUS
 62
   18
 10
607.79908357408954
 20
284.91898555661646
 11
617.79909182208371
 21
274.91897730862223
  0
LINE
  8
_0-7_ハッチ
  6
CONTINUOUS
 62
   18
 10
607.79908357408954
 20
282.7976652130568
 11
617.79909182208371
 21
272.79765696506274
  0
LINE
  8
_0-7_ハッチ
  6
CONTINUOUS
 62
   18
 10
617.79909182208371
 20
291.28294658729527
 11
607.79909182208371
 21
281.28294658729521
  0
LINE
  8
_0-7_ハッチ
  6
CONTINUOUS
 62
   18
 10
617.79909182208371
 20
289.16162624373567
 11
607.79909182208371
 21
279.1616262437355
  0
LINE
  8
_0-7_ハッチ
  6
CONTINUOUS
 62
   18
 10
617.79909182208371
 20
287.04030590017595
 11
607.79909182208371
 21
277.04030590017589
  0
LINE
  8
_0-7_ハッチ
  6
CONTINUOUS
 62
   18
 10
617.79909182208371
 20
284.91898555661646
 11
607.79909182208371
 21
274.91898555661635
  0
LINE
  8
_0-7_ハッチ
  6
CONTINUOUS
 62
   18
 10
617.79909182208371
 20
282.7976652130568
 11
607.79909182208371
 21
272.79766521305686
  0
LINE
  8
_0-7_ハッチ
  6
CONTINUOUS
 62
   18
 10
607.79908357408954
 20
280.67634486949714
 11
617.79909182208371
 21
270.67633662150308
  0
LINE
  8
_0-7_ハッチ
  6
CONTINUOUS
 62
   18
 10
617.79909182208371
 20
280.67634486949714
 11
607.79908357408965
 21
270.67633662150308
  0
LINE
  8
_0-7_ハッチ
  6
CONTINUOUS
 62
   18
 10
617.79909182208371
 20
278.55502452593748
 11
607.79908357408954
 21
268.55501627794342
  0
LINE
  8
_0-7_ハッチ
  6
CONTINUOUS
 62
   18
 10
607.79908357408954
 20
278.55502452593748
 11
617.79909182208371
 21
268.55501627794342
  0
LINE
  8
_0-7_ハッチ
  6
CONTINUOUS
 62
   18
 10
607.79908357408954
 20
276.43370418237782
 11
617.79909182208371
 21
266.43369593438376
  0
LINE
  8
_0-7_ハッチ
  6
CONTINUOUS
 62
   18
 10
607.79908357408954
 20
274.31238383881816
 11
617.79909182208371
 21
264.3123755908241
  0
LINE
  8
_0-7_ハッチ
  6
CONTINUOUS
 62
   18
 10
607.79908357408954
 20
272.19106349525867
 11
617.79909182208371
 21
262.19105524726444
  0
LINE
  8
_0-7_ハッチ
  6
CONTINUOUS
 62
   18
 10
607.79908357408954
 20
270.06974315169907
 11
617.79909182208371
 21
260.06973490370495
  0
LINE
  8
_0-7_ハッチ
  6
CONTINUOUS
 62
   18
 10
607.79908357408954
 20
267.94842280813936
 11
617.79909182208371
 21
257.94841456014535
  0
LINE
  8
_0-7_ハッチ
  6
CONTINUOUS
 62
   18
 10
617.79909182208371
 20
276.43370418237782
 11
607.79909182208371
 21
266.43370418237794
  0
LINE
  8
_0-7_ハッチ
  6
CONTINUOUS
 62
   18
 10
617.79909182208371
 20
274.31238383881816
 11
607.79909182208371
 21
264.31238383881805
  0
LINE
  8
_0-7_ハッチ
  6
CONTINUOUS
 62
   18
 10
617.79909182208371
 20
272.19106349525867
 11
607.79909182208371
 21
262.19106349525839
  0
LINE
  8
_0-7_ハッチ
  6
CONTINUOUS
 62
   18
 10
617.79909182208371
 20
270.06974315169907
 11
607.79909182208371
 21
260.06974315169907
  0
LINE
  8
_0-7_ハッチ
  6
CONTINUOUS
 62
   18
 10
617.79909182208371
 20
267.94842280813953
 11
607.79909182208371
 21
257.94842280813941
  0
LINE
  8
_0-7_ハッチ
  6
CONTINUOUS
 62
   18
 10
607.79908357408954
 20
265.87236666385081
 11
617.79909182208371
 21
255.8723584158567
  0
LINE
  8
_0-7_ハッチ
  6
CONTINUOUS
 62
   18
 10
617.79909182208371
 20
265.87236666385081
 11
607.79908357408965
 21
255.8723584158567
  0
LINE
  8
_0-7_ハッチ
  6
CONTINUOUS
 62
   18
 10
617.79909182208371
 20
263.7510463202911
 11
607.79908357408954
 21
253.75103807229712
  0
LINE
  8
_0-7_ハッチ
  6
CONTINUOUS
 62
   18
 10
607.79908357408954
 20
263.7510463202911
 11
617.79909182208371
 21
253.75103807229712
  0
LINE
  8
_0-7_ハッチ
  6
CONTINUOUS
 62
   18
 10
607.79908357408954
 20
261.62972597673149
 11
617.79909182208371
 21
251.62971772873738
  0
LINE
  8
_0-7_ハッチ
  6
CONTINUOUS
 62
   18
 10
617.79909182208371
 20
261.62972597673149
 11
607.79909182208371
 21
251.62972597673149
  0
LINE
  8
_0-7_ハッチ
  6
CONTINUOUS
 62
   18
 10
607.79909182208371
 20
333.00223842930717
 11
609.45772594935966
 21
331.343604302031
  0
LINE
  8
_0-7_ハッチ
  6
CONTINUOUS
 62
   18
 10
607.79909182208371
 20
334.41645199168033
 11
610.87193951173288
 21
331.343604302031
  0
LINE
  8
_0-7_ハッチ
  6
CONTINUOUS
 62
   18
 10
580.88209182208391
 20
238.34360430203117
 11
563.79909182208371
 21
255.42660430203108
  0
LINE
  8
_0-7_ハッチ
  6
CONTINUOUS
 62
   18
 10
607.79909182208371
 20
319.18967775486078
 11
583.64516527491367
 21
343.343604302031
  0
LINE
  8
_0-7_ハッチ
  6
CONTINUOUS
 62
   18
 10
607.22513963149993
 20
238.9413248558223
 11
563.79909182208371
 21
282.36737266523858
  0
LINE
  8
_0-7_ハッチ
  6
CONTINUOUS
 62
   18
 10
607.79909182208371
 20
265.30814102844613
 11
576.76362854849867
 21
296.34360430203094
  0
TEXT
  8
_0-e_文字
 62
    4
 10
266.92159282504753
 20
430.25331308026489
 40
7.5000000000000853
 41
0.9999999999999864
 50
0
  1
(建築工事)
  0
TEXT
  8
_0-e_文字
 62
    7
 10
186.42455775234134
 20
416.86375799018879
 40
9
 41
1
 50
0
  1
変性シリコーンシーリング
  0
LINE
  8
_0-d_寸法
  6
CONTINUOUS
 62
   18
 10
530.70209182208384
 20
343.343604302031
 11
530.70209182208384
 21
281.5016043109157
  0
LINE
  8
_0-d_寸法
  6
CONTINUOUS
 62
   18
 10
530.70209182208384
 20
281.5016043109157
 11
530.70209182208384
 21
238.343604302031
  0
CIRCLE
  8
_0-d_寸法
  6
CONTINUOUS
 62
   18
 10
530.70209182208384
 20
238.343604302031
 40
1.7254760742187489
  0
LINE
  8
_0-d_寸法
  6
CONTINUOUS
 62
   18
 10
530.70209182208384
 20
348.11360428426133
 11
530.70209182208384
 21
343.343604302031
  0
LINE
  8
_0-d_寸法
  6
CONTINUOUS
 62
   18
 10
532.43209183985346
 20
343.343604302031
 11
524.70209184443547
 21
343.343604302031
  0
CIRCLE
  8
_0-d_寸法
  6
CONTINUOUS
 62
   18
 10
530.70209182208384
 20
343.343604302031
 40
1.7254760742187489
  0
LINE
  8
_0-d_寸法
  6
CONTINUOUS
 62
   18
 10
530.70209182208384
 20
238.343604302031
 11
530.70209182208384
 21
233.57360431980067
  0
LINE
  8
_0-d_寸法
  6
CONTINUOUS
 62
   18
 10
528.93209183985346
 20
238.343604302031
 11
524.70209184443547
 21
238.343604302031
  0
LINE
  8
_0-d_寸法
  6
CONTINUOUS
 62
   18
 10
554.06380303343212
 20
296.34360430203094
 11
524.70209184443547
 21
296.34360430203094
  0
CIRCLE
  8
_0-d_寸法
  6
CONTINUOUS
 62
   18
 10
530.70209182208384
 20
296.34360430203094
 40
1.7254760742187489
  0
LINE
  8
_0-1_躯体
  6
CONTINUOUS
 62
    7
 10
677.79909182208371
 20
361.343604302031
 11
632.79909182208371
 21
361.343604302031
  0
LINE
  8
_0-1_躯体
  6
CONTINUOUS
 62
    7
 10
632.79909182208371
 20
361.343604302031
 11
632.79909182208371
 21
343.343604302031
  0
LINE
  8
_0-1_躯体
  6
CONTINUOUS
 62
    7
 10
632.79909182208371
 20
343.343604302031
 11
677.79909182208371
 21
343.343604302031
  0
LINE
  8
_0-1_躯体
  6
CONTINUOUS
 62
    7
 10
677.79909182208371
 20
343.343604302031
 11
677.79909182208371
 21
361.343604302031
  0
LINE
  8
_0-3_雑工事
  6
CONTINUOUS
 62
    7
 10
607.79909182208371
 20
331.343604302031
 11
607.79909182208371
 21
341.34360430203094
  0
LINE
  8
_0-3_雑工事
  6
CONTINUOUS
 62
    7
 10
607.79909182208371
 20
341.34360430203094
 11
608.79909182208371
 21
340.343604302031
  0
LINE
  8
_0-3_雑工事
  6
CONTINUOUS
 62
    7
 10
608.79909182208371
 20
340.343604302031
 11
615.09909182208355
 21
340.343604302031
  0
LINE
  8
_0-3_雑工事
  6
CONTINUOUS
 62
    7
 10
615.09909182208355
 20
340.343604302031
 11
617.79909182208371
 21
343.343604302031
  0
LINE
  8
_0-3_雑工事
  6
CONTINUOUS
 62
    7
 10
617.79909182208371
 20
343.343604302031
 11
617.79909182208371
 21
331.343604302031
  0
LINE
  8
_0-3_雑工事
  6
CONTINUOUS
 62
    7
 10
617.79909182208371
 20
331.343604302031
 11
607.79909182208371
 21
331.343604302031
  0
LINE
  8
_0-2_造作工事
  6
CONTINUOUS
 62
    7
 10
617.79909182208371
 20
331.343604302031
 11
617.79909182208371
 21
251.3436043020312
  0
LINE
  8
_0-1_躯体
  6
CONTINUOUS
 62
    7
 10
722.79909182208371
 20
343.343604302031
 11
722.79909182208371
 21
238.343604302031
  0
LINE
  8
_0-1_躯体
  6
CONTINUOUS
 62
    7
 10
617.79909182208371
 20
238.343604302031
 11
722.79909182208371
 21
238.343604302031
  0
LINE
  8
_0-1_躯体
  6
CONTINUOUS
 62
   18
 10
722.79909182208371
 20
238.343604302031
 11
617.79909182208371
 21
343.343604302031
  0
LINE
  8
_0-1_躯体
  6
CONTINUOUS
 62
   18
 10
617.79909182208371
 20
238.343604302031
 11
722.79909182208371
 21
343.343604302031
  0
LINE
  8
_0-1_躯体
  6
CONTINUOUS
 62
    7
 10
605.79909182208371
 20
238.343604302031
 11
733.79909182208348
 21
238.343604302031
  0
LINE
  8
_0-1_躯体
  6
CONTINUOUS
 62
    7
 10
647.52370249284115
 20
361.343604302031
 11
733.79909182208348
 21
361.343604302031
  0
LINE
  8
_0-1_躯体
  6
CONTINUOUS
 62
   18
 10
677.79909182208371
 20
343.343604302031
 11
632.79909182208371
 21
361.343604302031
  0
LINE
  8
_0-0_本体
  6
CONTINUOUS
 62
   18
 10
554.79909182208371
 20
298.343604302031
 11
554.79909182208371
 21
301.343604302031
  0
LINE
  8
_0-0_本体
  6
CONTINUOUS
 62
   18
 10
559.79909182208371
 20
298.343604302031
 11
554.79909182208371
 21
298.343604302031
  0
LINE
  8
_0-0_本体
  6
CONTINUOUS
 62
    7
 10
555.54909182208371
 20
298.84377524345007
 11
555.54909182208371
 21
300.593604302031
  0
LINE
  8
_0-0_本体
  6
CONTINUOUS
 62
    7
 10
575.99943370492201
 20
297.09360430203117
 11
564.2990918220836
 21
297.09360430203117
  0
LINE
  8
_0-0_本体
  6
CONTINUOUS
 62
    7
 10
563.04909182208371
 20
295.343604302031
 11
563.04909182208371
 21
295.84360430203105
  0
LINE
  8
_0-0_本体
  6
CONTINUOUS
 62
    7
 10
560.54909182208371
 20
295.343604302031
 11
560.54909182208371
 21
300.593604302031
  0
LINE
  8
_0-0_本体
  6
CONTINUOUS
 62
    7
 10
576.07338775456265
 20
299.05022690177725
 11
576.08901126312639
 21
299.0396742949705
  0
ARC
  8
_0-0_本体
  6
CONTINUOUS
 62
    7
 10
575.99943370492201
 20
297.84360430203094
 40
0.75
 50
270
 51
0
  0
ARC
  8
_0-0_本体
  6
CONTINUOUS
 62
    7
 10
561.79909182208371
 20
295.343604302031
 40
1.25
 50
270
 51
0
  0
ARC
  8
_0-0_本体
  6
CONTINUOUS
 62
    7
 10
561.79909182208371
 20
295.343604302031
 40
1.25
 50
180
 51
270
  0
ARC
  8
_0-0_本体
  6
CONTINUOUS
 62
    7
 10
564.2990918220836
 20
295.84360430203105
 40
1.25
 50
90
 51
180
  0
LINE
  8
_0-0_本体
  6
CONTINUOUS
 62
   18
 10
605.79909182208371
 20
238.343604302031
 11
515.99909182208376
 21
238.343604302031
  0
ARC
  8
_0-0_本体
  6
CONTINUOUS
 62
    7
 10
575.24943370492201
 20
297.79664994936843
 40
1.5
 50
0
 51
55.963676462531339
  0
LINE
  8
_0-0_本体
  6
CONTINUOUS
 62
    7
 10
575.36333181961129
 20
299.45192690779777
 11
576.07338775456265
 21
299.05022690177725
  0
LINE
  8
_0-0_本体
  6
CONTINUOUS
 62
    7
 10
574.6237181854649
 20
299.79618552828663
 11
575.36333181961129
 21
299.45192690779777
  0
LINE
  8
_0-0_本体
  6
CONTINUOUS
 62
    7
 10
573.85918447406277
 20
300.08084414791045
 11
574.6237181854649
 21
299.79618552828663
  0
LINE
  8
_0-0_本体
  6
CONTINUOUS
 62
    7
 10
573.07452456446595
 20
300.30411786304023
 11
573.85918447406277
 21
300.08084414791045
  0
LINE
  8
_0-0_本体
  6
CONTINUOUS
 62
    7
 10
572.27465853364993
 20
300.46460667368683
 11
573.07452456446595
 21
300.30411786304023
  0
LINE
  8
_0-0_本体
  6
CONTINUOUS
 62
    7
 10
571.46460180599558
 20
300.5613042619633
 11
572.27465853364993
 21
300.46460667368683
  0
LINE
  8
_0-0_本体
  6
CONTINUOUS
 62
    7
 10
570.64943370492188
 20
300.593604302031
 11
571.46460180599558
 21
300.5613042619633
  0
LINE
  8
_0-0_本体
  6
CONTINUOUS
 62
    7
 10
555.54909182208371
 20
300.593604302031
 11
570.64943370492188
 21
300.593604302031
  0
ARC
  8
_0-0_本体
  6
CONTINUOUS
 62
   18
 10
565.7990918220836
 20
240.34360430203105
 40
2
 50
180
 51
270
  0
LINE
  8
_0-0_本体
  6
CONTINUOUS
 62
   18
 10
605.79909182208371
 20
238.343604302031
 11
565.7990918220836
 21
238.343604302031
  0
ARC
  8
_0-0_本体
  6
CONTINUOUS
 62
   18
 10
605.79909182208371
 20
240.34360430203105
 40
2
 50
270
 51
0
  0
LINE
  8
_0-0_本体
  6
CONTINUOUS
 62
   18
 10
607.79909182208371
 20
341.34360430203111
 11
607.79909182208371
 21
240.34360430203105
  0
ARC
  8
_0-0_本体
  6
CONTINUOUS
 62
   18
 10
605.79909182208371
 20
341.34360430203111
 40
2
 50
0
 51
90
  0
LINE
  8
_0-3_雑工事
  6
CONTINUOUS
 62
    7
 10
634.59909182208378
 20
373.343604302031
 11
632.79909182208371
 21
375.34360430203105
  0
LINE
  8
_0-7_ハッチ
  6
CONTINUOUS
 62
   18
 10
636.3120305700611
 20
361.343604302031
 11
644.79909182208371
 21
369.83066555405327
  0
LINE
  8
_0-7_ハッチ
  6
CONTINUOUS
 62
   18
 10
637.7262441324342
 20
361.343604302031
 11
644.79909182208371
 21
368.41645199168028
  0
LINE
  8
_0-7_ハッチ
  6
CONTINUOUS
 62
   18
 10
634.8978170076881
 20
361.343604302031
 11
644.79909182208371
 21
371.24487911642643
  0
LINE
  8
_0-7_ハッチ
  6
CONTINUOUS
 62
   18
 10
633.48360344531511
 20
361.343604302031
 11
644.79909182208371
 21
372.6590926787996
  0
LINE
  8
_0-7_ハッチ
  6
CONTINUOUS
 62
   18
 10
640.55467125718008
 20
361.343604302031
 11
644.79909182208371
 21
365.58802486693395
  0
LINE
  8
_0-7_ハッチ
  6
CONTINUOUS
 62
   18
 10
639.14045769480742
 20
361.343604302031
 11
644.79909182208371
 21
367.00223842930711
  0
LINE
  8
_0-7_ハッチ
  6
CONTINUOUS
 62
   18
 10
643.38309838192652
 20
361.343604302031
 11
644.79909182208371
 21
362.75959774218779
  0
LINE
  8
_0-7_ハッチ
  6
CONTINUOUS
 62
   18
 10
641.9688848195533
 20
361.343604302031
 11
644.79909182208371
 21
364.17381130456079
  0
LINE
  8
_0-3_雑工事
  6
CONTINUOUS
 62
    7
 10
632.79909182208371
 20
361.343604302031
 11
632.79909182208371
 21
375.34360430203105
  0
LINE
  8
_0-3_雑工事
  6
CONTINUOUS
 62
    7
 10
644.79909182208371
 20
361.343604302031
 11
632.79909182208371
 21
361.343604302031
  0
LINE
  8
_0-7_ハッチ
  6
CONTINUOUS
 62
   18
 10
635.31320703133656
 20
361.34360430203151
 11
632.79909182208371
 21
363.85771951128424
  0
LINE
  8
_0-7_ハッチ
  6
CONTINUOUS
 62
   18
 10
639.5558477184552
 20
361.343604302031
 11
632.79909182208371
 21
368.1003601984018
  0
LINE
  8
_0-7_ハッチ
  6
CONTINUOUS
 62
   18
 10
636.72742059370933
 20
361.34360430203151
 11
632.79909182208371
 21
365.27193307365684
  0
LINE
  8
_0-7_ハッチ
  6
CONTINUOUS
 62
   18
 10
638.14163415608232
 20
361.34360430203117
 11
632.79909182208371
 21
366.68614663602949
  0
LINE
  8
_0-7_ハッチ
  6
CONTINUOUS
 62
   18
 10
632.79909182208371
 20
362.07330624117276
 11
644.79909182208371
 21
374.07330624117259
  0
LINE
  8
_0-7_ハッチ
  6
CONTINUOUS
 62
   18
 10
644.79909182208371
 20
361.75721444789446
 11
632.79909182208371
 21
373.75721444789463
  0
LINE
  8
_0-7_ハッチ
  6
CONTINUOUS
 62
   18
 10
643.79848840557418
 20
361.343604302031
 11
632.79909182208371
 21
372.34300088552146
  0
LINE
  8
_0-7_ハッチ
  6
CONTINUOUS
 62
   18
 10
640.97006128082785
 20
361.343604302031
 11
632.79909182208371
 21
369.51457376077531
  0
LINE
  8
_0-7_ハッチ
  6
CONTINUOUS
 62
   18
 10
642.38427484320118
 20
361.343604302031
 11
632.79909182208371
 21
370.92878732314847
  0
LINE
  8
_0-3_雑工事
  6
CONTINUOUS
 62
    7
 10
642.99909182208364
 20
373.343604302031
 11
644.79909182208371
 21
375.34360430203105
  0
LINE
  8
_0-7_ハッチ
  6
CONTINUOUS
 62
    7
 10
634.59909182208378
 20
373.343604302031
 11
642.99909182208364
 21
373.343604302031
  0
LINE
  8
_0-7_ハッチ
  6
CONTINUOUS
 62
   18
 10
632.79909182208371
 20
363.48751980354575
 11
642.6551763205689
 21
373.343604302031
  0
LINE
  8
_0-7_ハッチ
  6
CONTINUOUS
 62
   18
 10
644.79909182208371
 20
370.24249582213292
 11
641.69798334218581
 21
373.343604302031
  0
LINE
  8
_0-7_ハッチ
  6
CONTINUOUS
 62
   18
 10
632.79909182208371
 20
364.90173336591897
 11
641.24096275819579
 21
373.343604302031
  0
LINE
  8
_0-7_ハッチ
  6
CONTINUOUS
 62
   18
 10
644.79909182208371
 20
368.8282822597601
 11
640.28376977981281
 21
373.343604302031
  0
LINE
  8
_0-7_ハッチ
  6
CONTINUOUS
 62
   18
 10
632.79909182208371
 20
366.31594692829208
 11
639.82674919582269
 21
373.343604302031
  0
LINE
  8
_0-7_ハッチ
  6
CONTINUOUS
 62
   18
 10
644.79909182208371
 20
367.41406869738694
 11
638.86955621743959
 21
373.343604302031
  0
LINE
  8
_0-7_ハッチ
  6
CONTINUOUS
 62
   18
 10
644.79909182208371
 20
365.99985513501395
 11
637.4553426550666
 21
373.343604302031
  0
LINE
  8
_0-7_ハッチ
  6
CONTINUOUS
 62
   18
 10
632.79909182208371
 20
369.14437405303823
 11
636.99832207107647
 21
373.343604302031
  0
LINE
  8
_0-7_ハッチ
  6
CONTINUOUS
 62
   18
 10
632.79909182208371
 20
370.55858761541123
 11
635.58410850870348
 21
373.343604302031
  0
LINE
  8
_0-7_ハッチ
  6
CONTINUOUS
 62
   18
 10
644.79909182208371
 20
364.58564157264078
 11
636.0411290926935
 21
373.343604302031
  0
LINE
  8
_0-7_ハッチ
  6
CONTINUOUS
 62
   18
 10
632.79909182208371
 20
367.73016049066507
 11
638.41253563344958
 21
373.343604302031
  0
LINE
  8
_0-7_ハッチ
  6
CONTINUOUS
 62
   18
 10
632.79909182208371
 20
371.97280117778439
 11
634.39840523832527
 21
373.572114594026
  0
LINE
  8
_0-7_ハッチ
  6
CONTINUOUS
 62
   18
 10
634.34867844795474
 20
373.62184138439653
 11
632.79909182208371
 21
375.1714280102675
  0
LINE
  8
_0-7_ハッチ
  6
CONTINUOUS
 62
   18
 10
632.79909182208371
 20
373.38701474015755
 11
633.72589740402373
 21
374.31382032209757
  0
LINE
  8
_0-7_ハッチ
  6
CONTINUOUS
 62
   18
 10
632.79909182208371
 20
374.80122830253055
 11
633.0560067692154
 21
375.05814324966246
  0
LINE
  8
_0-7_ハッチ
  6
CONTINUOUS
 62
   18
 10
644.79909182208371
 20
363.17142801026762
 11
634.62691553032028
 21
373.343604302031
  0
LINE
  8
_0-7_ハッチ
  6
CONTINUOUS
 62
   18
 10
644.79909182208371
 20
371.65670938450592
 11
643.05266791378233
 21
373.4031332928073
  0
LINE
  8
_0-7_ハッチ
  6
CONTINUOUS
 62
   18
 10
644.79909182208371
 20
373.07092294687908
 11
643.72255854859077
 21
374.14745622037208
  0
LINE
  8
_0-7_ハッチ
  6
CONTINUOUS
 62
   18
 10
644.79909182208371
 20
374.48513650925207
 11
644.39244918339887
 21
374.89177914793692
  0
LINE
  8
_0-1_躯体
  6
CONTINUOUS
 62
    7
 10
644.79909182208371
 20
375.34360430203105
 11
733.79909182208348
 21
375.34360430203105
  0
LINE
  8
_0-3_雑工事
  6
CONTINUOUS
 62
    7
 10
644.79909182208371
 20
375.34360430203105
 11
644.79909182208371
 21
361.343604302031
  0
LINE
  8
_0-2_造作工事
  6
CONTINUOUS
 62
    7
 10
632.79909182208371
 20
343.343604302031
 11
632.79909182208371
 21
383.34360430203094
  0
LINE
  8
_0-2_造作工事
  6
CONTINUOUS
 62
    7
 10
632.79909182208371
 20
343.343604302031
 11
597.7990918220836
 21
343.343604302031
  0
LINE
  8
_0-2_造作工事
  6
CONTINUOUS
 62
    7
 10
597.7990918220836
 20
343.343604302031
 11
597.7990918220836
 21
383.34360430203094
  0
LINE
  8
_0-2_造作工事
  6
CONTINUOUS
 62
    7
 10
632.79909182208371
 20
383.34360430203094
 11
597.7990918220836
 21
383.34360430203094
  0
LINE
  8
_0-7_ハッチ
  6
CONTINUOUS
 62
   18
 10
613.07027982183399
 20
343.07241630228083
 11
612.7990918220836
 21
342.80122830253066
  0
LINE
  8
_0-7_ハッチ
  6
CONTINUOUS
 62
   18
 10
600.08713583265171
 20
383.34360430203094
 11
597.7990918220836
 21
381.05556029146288
  0
LINE
  8
_0-7_ハッチ
  6
CONTINUOUS
 62
   18
 10
607.15820364451713
 20
383.34360430203094
 11
597.7990918220836
 21
373.98449247959741
  0
LINE
  8
_0-7_ハッチ
  6
CONTINUOUS
 62
   18
 10
614.22927145638266
 20
383.34360430203094
 11
597.7990918220836
 21
366.91342466773193
  0
LINE
  8
_0-7_ハッチ
  6
CONTINUOUS
 62
   18
 10
621.30033926824808
 20
383.34360430203094
 11
597.7990918220836
 21
359.84235685586646
  0
LINE
  8
_0-7_ハッチ
  6
CONTINUOUS
 62
   18
 10
628.37140708011361
 20
383.34360430203094
 11
597.7990918220836
 21
352.77128904400098
  0
LINE
  8
_0-7_ハッチ
  6
CONTINUOUS
 62
   18
 10
632.79909182208371
 20
380.70022123213556
 11
597.7990918220836
 21
345.7002212321355
  0
LINE
  8
_0-7_ハッチ
  6
CONTINUOUS
 62
   18
 10
632.79909182208371
 20
345.34488217280818
 11
630.79781395130647
 21
343.343604302031
  0
LINE
  8
_0-7_ハッチ
  6
CONTINUOUS
 62
   18
 10
632.79909182208371
 20
366.55808560840461
 11
609.5846105157101
 21
343.343604302031
  0
LINE
  8
_0-7_ハッチ
  6
CONTINUOUS
 62
   18
 10
632.79909182208371
 20
359.48701779653913
 11
616.65567832757552
 21
343.343604302031
  0
LINE
  8
_0-7_ハッチ
  6
CONTINUOUS
 62
   18
 10
632.79909182208371
 20
352.41594998467366
 11
623.72674613944105
 21
343.343604302031
  0
LINE
  8
_0-7_ハッチ
  6
CONTINUOUS
 62
   18
 10
632.79909182208371
 20
373.62915342027009
 11
602.51354270384456
 21
343.343604302031
  0
LINE
  8
_0-3_雑工事
  6
CENTER1
 62
    7
 10
617.79909182208371
 20
341.843604302031
 11
733.7990918220836
 21
341.843604302031
  0
LINE
  8
_0-3_雑工事
  6
PHANTOM1
 62
    7
 10
597.7990918220836
 20
344.843604302031
 11
733.7990918220836
 21
344.843604302031
  0
SOLID
  8
_0-f_
  6
CONTINUOUS
 62
    7
 10
694.31820713622778
 20
342.23284831625853
 11
701.16823723019672
 21
335.13943450357601
 12
696.7038003079515
 22
332.66475670793562
 13
696.7038003079515
 23
332.66475670793562
  0
TEXT
  8
_0-e_文字
 62
    4
 10
258.29397948565475
 20
408.56775680095149
 40
7.5000000000000853
 41
0.9999999999999864
 50
0
  1
(建築工事)
  0
SOLID
  8
_0-f_
  6
CONTINUOUS
 62
    7
 10
638.79645028807249
 20
373.73403611339563
 11
645.64648038204132
 21
380.82744992607815
 12
641.1820434597962
 22
383.30212772171853
 13
641.1820434597962
 23
383.30212772171853
  0
LINE
  8
_0-f_
  6
CONTINUOUS
 62
    7
 10
665.35129385516723
 20
397.20109533728794
 11
652.34512998057767
 21
397.20109533728794
  0
LINE
  8
_0-f_
  6
CONTINUOUS
 62
    7
 10
652.34512998057767
 20
397.20109533728794
 11
638.79645028807249
 21
373.73403611339563
  0
TEXT
  8
_0-e_文字
 62
    7
 10
156.62914692927211
 20
400.71995111559693
 40
9
 41
1.0000000000000009
 50
0
  1
防水シート
  0
LINE
  8
_0-7_ハッチ
  6
CONTINUOUS
 62
   18
 10
367.60509182208375
 20
338.52182466052039
 11
372.42687146359452
 21
343.343604302031
  0
LINE
  8
_0-0_本体
  6
CONTINUOUS
 62
   18
 10
605.79909182208371
 20
343.343604302031
 11
583.28659182208366
 21
343.343604302031
  0
LINE
  8
_0-0_本体
  6
CONTINUOUS
 62
   18
 10
563.79909182208371
 20
296.34360430203094
 11
579.28659182208366
 21
296.34360430203094
  0
LINE
  8
_0-7_ハッチ
  6
CONTINUOUS
 62
   18
 10
609.67598335274613
 20
321.34360430203105
 11
607.79908357408965
 21
319.46670452337457
  0
LINE
  8
_0-7_ハッチ
  6
CONTINUOUS
 62
   18
 10
609.55823101274814
 20
321.34360430203105
 11
617.79909182208371
 21
313.10274349269559
  0
LINE
  8
_0-7_ハッチ
  6
CONTINUOUS
 62
   18
 10
611.79730369630579
 20
321.34360430203105
 11
607.79908357408965
 21
317.34538417981491
  0
LINE
  8
_0-7_ハッチ
  6
CONTINUOUS
 62
   18
 10
611.67955135630791
 20
321.34360430203105
 11
617.79909182208371
 21
315.22406383625525
  0
LINE
  8
_0-7_ハッチ
  6
CONTINUOUS
 62
   18
 10
613.91862403986545
 20
321.34360430203105
 11
607.79908357408965
 21
315.22406383625525
  0
LINE
  8
_0-7_ハッチ
  6
CONTINUOUS
 62
   18
 10
613.80087169986757
 20
321.34360430203105
 11
617.79909182208371
 21
317.34538417981491
  0
LINE
  8
_0-7_ハッチ
  6
CONTINUOUS
 62
   18
 10
616.03994438342511
 20
321.34360430203105
 11
607.79908357408954
 21
313.10274349269559
  0
LINE
  8
_0-7_ハッチ
  6
CONTINUOUS
 62
   18
 10
615.92219204342723
 20
321.34360430203105
 11
617.79909182208371
 21
319.46670452337457
  0
CIRCLE
  8
_0-3_雑工事
  6
CONTINUOUS
 62
    7
 10
612.79909182208371
 20
326.34360430203111
 40
4.9999999999999929
  0
LINE
  8
_0-7_ハッチ
  6
CONTINUOUS
 62
   18
 10
608.1445079105066
 20
324.51744751520027
 11
614.62524860891438
 21
330.99818821360816
  0
LINE
  8
_0-7_ハッチ
  6
CONTINUOUS
 62
   18
 10
607.84934435377784
 20
325.63649752084461
 11
613.50619860327015
 21
331.29335177033693
  0
LINE
  8
_0-7_ハッチ
  6
CONTINUOUS
 62
   18
 10
607.84934435377795
 20
327.05071108321783
 11
612.09198504089682
 21
331.29335177033681
  0
LINE
  8
_0-7_ハッチ
  6
CONTINUOUS
 62
   18
 10
609.26355791615094
 20
322.80807039609829
 11
616.33462572801648
 21
329.87913820796382
  0
LINE
  8
_0-7_ハッチ
  6
CONTINUOUS
 62
   18
 10
608.62788342575936
 20
323.58660946807993
 11
615.55608665603484
 21
330.51481269835534
  0
LINE
  8
_0-7_ハッチ
  6
CONTINUOUS
 62
   18
 10
610.04209698813247
 20
322.17239590570688
 11
616.97030021840806
 21
329.10059913598235
  0
LINE
  8
_0-7_ハッチ
  6
CONTINUOUS
 62
   18
 10
610.97293503525293
 20
330.99818821360805
 11
617.4536757336607
 21
324.51744751520022
  0
LINE
  8
_0-7_ハッチ
  6
CONTINUOUS
 62
   18
 10
612.09198504089727
 20
331.29335177033693
 11
617.74883929038947
 21
325.6364975208445
  0
LINE
  8
_0-7_ハッチ
  6
CONTINUOUS
 62
   18
 10
613.50619860327049
 20
331.29335177033681
 11
617.74883929038947
 21
327.05071108321778
  0
LINE
  8
_0-7_ハッチ
  6
CONTINUOUS
 62
   18
 10
609.26355791615094
 20
329.87913820796382
 11
616.33462572801648
 21
322.80807039609829
  0
LINE
  8
_0-7_ハッチ
  6
CONTINUOUS
 62
   18
 10
610.04209698813258
 20
330.51481269835534
 11
616.97030021840806
 21
323.58660946807987
  0
LINE
  8
_0-7_ハッチ
  6
CONTINUOUS
 62
   18
 10
608.62788342575936
 20
329.10059913598218
 11
615.55608665603484
 21
322.17239590570671
  0
LINE
  8
_0-7_ハッチ
  6
CONTINUOUS
 62
   18
 10
608.1445079105066
 20
328.16976108886183
 11
614.62524860891449
 21
321.68902039045395
  0
LINE
  8
_0-7_ハッチ
  6
CONTINUOUS
 62
   18
 10
607.84934435377784
 20
327.05071108321744
 11
613.50619860327015
 21
321.39385683372518
  0
LINE
  8
_0-7_ハッチ
  6
CONTINUOUS
 62
   18
 10
607.84934435377795
 20
325.63649752084427
 11
612.09198504089682
 21
321.39385683372529
  0
LINE
  8
_0-7_ハッチ
  6
CONTINUOUS
 62
   18
 10
610.97293503525293
 20
321.68902039045406
 11
617.4536757336607
 21
328.169761088862
  0
LINE
  8
_0-7_ハッチ
  6
CONTINUOUS
 62
   18
 10
613.50619860327015
 20
321.39385683372518
 11
617.74883929038958
 21
325.6364975208445
  0
LINE
  8
_0-7_ハッチ
  6
CONTINUOUS
 62
   18
 10
612.09198504089716
 20
321.39385683372518
 11
617.74883929038947
 21
327.05071108321761
  0
LINE
  8
ADD_LINE
  6
DOT
 62
    9
 10
612.79909182208371
 20
321.34360430203105
 11
612.79909182208371
 21
331.343604302031
  0
LINE
  8
ADD_LINE
  6
DOT
 62
    9
 10
607.79909182208371
 20
326.34360430203117
 11
617.79909182208371
 21
326.34360430203111
  0
LINE
  8
_0-3_雑工事
  6
CONTINUOUS
 62
    7
 10
357.60509182208398
 20
321.34360430203105
 11
367.60509182208375
 21
321.34360430203105
  0
LINE
  8
_0-7_ハッチ
  6
CONTINUOUS
 62
   18
 10
367.60509182208375
 20
331.58802486693384
 11
367.36067125718091
 21
331.343604302031
  0
LINE
  8
_0-7_ハッチ
  6
CONTINUOUS
 62
   18
 10
367.25967573366074
 20
324.51744751520027
 11
360.77893503525297
 21
330.99818821360816
  0
LINE
  8
_0-7_ハッチ
  6
CONTINUOUS
 62
   18
 10
367.55483929038951
 20
325.63649752084461
 11
361.89798504089754
 21
331.29335177033693
  0
LINE
  8
_0-7_ハッチ
  6
CONTINUOUS
 62
   18
 10
367.55483929038951
 20
327.05071108321783
 11
363.31219860327053
 21
331.29335177033681
  0
LINE
  8
_0-7_ハッチ
  6
CONTINUOUS
 62
   18
 10
366.14062572801652
 20
322.80807039609829
 11
359.06955791615104
 21
329.87913820796382
  0
LINE
  8
_0-7_ハッチ
  6
CONTINUOUS
 62
   18
 10
366.7763002184081
 20
323.58660946807993
 11
359.84809698813262
 21
330.51481269835534
  0
LINE
  8
_0-7_ハッチ
  6
CONTINUOUS
 62
   18
 10
365.36208665603493
 20
322.17239590570688
 11
358.43388342575963
 21
329.10059913598235
  0
LINE
  8
_0-7_ハッチ
  6
CONTINUOUS
 62
   18
 10
364.43124860891442
 20
330.99818821360805
 11
357.95050791050664
 21
324.51744751520022
  0
LINE
  8
_0-7_ハッチ
  6
CONTINUOUS
 62
   18
 10
363.31219860327019
 20
331.29335177033693
 11
357.65534435377788
 21
325.6364975208445
  0
LINE
  8
_0-7_ハッチ
  6
CONTINUOUS
 62
   18
 10
361.89798504089703
 20
331.29335177033681
 11
357.65534435377788
 21
327.05071108321778
  0
LINE
  8
_0-7_ハッチ
  6
CONTINUOUS
 62
   18
 10
366.14062572801652
 20
329.87913820796382
 11
359.06955791615104
 21
322.80807039609829
  0
LINE
  8
_0-7_ハッチ
  6
CONTINUOUS
 62
   18
 10
365.36208665603493
 20
330.51481269835534
 11
358.43388342575963
 21
323.58660946807987
  0
LINE
  8
_0-7_ハッチ
  6
CONTINUOUS
 62
   18
 10
366.7763002184081
 20
329.10059913598218
 11
359.84809698813262
 21
322.17239590570671
  0
LINE
  8
_0-7_ハッチ
  6
CONTINUOUS
 62
   18
 10
367.25967573366074
 20
328.16976108886183
 11
360.77893503525297
 21
321.68902039045395
  0
LINE
  8
_0-7_ハッチ
  6
CONTINUOUS
 62
   18
 10
367.55483929038951
 20
327.05071108321744
 11
361.89798504089754
 21
321.39385683372518
  0
LINE
  8
_0-7_ハッチ
  6
CONTINUOUS
 62
   18
 10
367.55483929038951
 20
325.63649752084427
 11
363.31219860327053
 21
321.39385683372529
  0
LINE
  8
_0-7_ハッチ
  6
CONTINUOUS
 62
   18
 10
364.43124860891476
 20
321.68902039045406
 11
357.95050791050664
 21
328.169761088862
  0
LINE
  8
_0-7_ハッチ
  6
CONTINUOUS
 62
   18
 10
361.8979850408972
 20
321.39385683372518
 11
357.65534435377788
 21
325.6364975208445
  0
LINE
  8
_0-7_ハッチ
  6
CONTINUOUS
 62
   18
 10
363.31219860327036
 20
321.39385683372518
 11
357.65534435377788
 21
327.05071108321761
  0
LINE
  8
ADD_LINE
  6
DOT
 62
    9
 10
362.60509182208369
 20
321.34360430203105
 11
362.60509182208369
 21
331.343604302031
  0
LINE
  8
ADD_LINE
  6
DOT
 62
    9
 10
367.60509182208375
 20
326.34360430203117
 11
357.60509182208364
 21
326.34360430203111
  0
LINE
  8
_0-7_ハッチ
  6
CONTINUOUS
 62
   18
 10
359.48199160074046
 20
321.34360430203105
 11
357.60509182208364
 21
319.46670452337457
  0
LINE
  8
_0-7_ハッチ
  6
CONTINUOUS
 62
   18
 10
367.96727297497875
 20
321.34360430203105
 11
357.60509182208364
 21
310.98142314913594
  0
LINE
  8
_0-7_ハッチ
  6
CONTINUOUS
 62
   18
 10
363.72463228785944
 20
321.34360430203105
 11
357.60509182208364
 21
315.22406383625525
  0
LINE
  8
_0-7_ハッチ
  6
CONTINUOUS
 62
   18
 10
361.60331194429978
 20
321.34360430203105
 11
357.60509182208364
 21
317.34538417981491
  0
LINE
  8
_0-7_ハッチ
  6
CONTINUOUS
 62
   18
 10
361.4855596043019
 20
321.34360430203105
 11
367.6051000700777
 21
315.22406383625525
  0
LINE
  8
_0-7_ハッチ
  6
CONTINUOUS
 62
   18
 10
365.72820029142122
 20
321.34360430203105
 11
367.6051000700777
 21
319.46670452337457
  0
LINE
  8
_0-7_ハッチ
  6
CONTINUOUS
 62
   18
 10
363.60687994786156
 20
321.34360430203105
 11
367.6051000700777
 21
317.34538417981491
  0
LINE
  8
_0-7_ハッチ
  6
CONTINUOUS
 62
   18
 10
359.36423926074224
 20
321.34360430203105
 11
367.6051000700777
 21
313.10274349269559
  0
LINE
  8
_0-7_ハッチ
  6
CONTINUOUS
 62
   18
 10
365.8459526314191
 20
321.34360430203105
 11
357.60509182208364
 21
313.10274349269559
  0
LINE
  8
_0-7_ハッチ
  6
CONTINUOUS
 62
   18
 10
365.72820029142122
 20
321.34360430203105
 11
367.60510007007787
 21
319.46670452337457
  0
LINE
  8
_0-7_ハッチ
  6
CONTINUOUS
 62
   18
 10
359.48199160074046
 20
321.34360430203105
 11
357.60509182208398
 21
319.46670452337457
  0
LINE
  8
_0-7_ハッチ
  6
CONTINUOUS
 62
   18
 10
358.87538988294193
 20
331.343604302031
 11
358.26497183804054
 21
330.7331862571296
  0
LINE
  8
_0-2_造作工事
  6
CONTINUOUS
 62
    7
 10
444.70209182208362
 20
284.11360428426144
 11
444.70209182208362
 21
279.34360430203105
  0
CIRCLE
  8
_0-2_造作工事
  6
CONTINUOUS
 62
    7
 10
444.70209182208362
 20
279.34360430203105
 40
1.7254760742187489
  0
CIRCLE
  8
_0-d_寸法
  6
CONTINUOUS
 62
   18
 10
444.70209182208362
 20
279.34360430203105
 40
1.7254760742187489
  0
LINE
  8
_0-0_本体
  6
CONTINUOUS
 62
   18
 10
418.43351894682991
 20
279.34360430203105
 11
462.20509182208383
 21
279.34360430203105
  0
LINE
  8
_0-2_造作工事
  6
CONTINUOUS
 62
    7
 10
442.97209180431412
 20
279.34360430203105
 11
450.70209179973205
 21
279.34360430203105
  0
LINE
  8
_0-d_寸法
  6
CONTINUOUS
 62
   18
 10
442.97209180431412
 20
279.34360430203105
 11
450.70209179973205
 21
279.34360430203105
  0
LINE
  8
_0-0_本体
  6
CONTINUOUS
 62
   18
 10
415.60509182208375
 20
282.17203142677727
 11
415.60509182208375
 21
298.50160431091575
  0
LINE
  8
_0-0_本体
  6
CONTINUOUS
 62
   18
 10
415.60509182208375
 20
282.17203142677727
 11
418.43351894682991
 21
279.34360430203105
  0
TEXT
  8
_0-e_文字
 62
    4
 10
169.12186358841745
 20
392.66445223824064
 40
7.5000000000000853
 41
0.9999999999999887
 50
0
  1
(建築工事)
  0
TEXT
  8
_0-e_文字
 62
    7
 10
666.95075850923126
 20
392.22175312840335
 40
9
 41
1
 50
0
  1
変成シリコーンシーリング
  0
LINE
  8
_0-0_本体
  6
CONTINUOUS
 62
   18
 10
515.99909182208376
 20
279.34360430203105
 11
557.12866470622214
 21
279.34360430203105
  0
LINE
  8
_0-0_本体
  6
CONTINUOUS
 62
   18
 10
559.79909182208371
 20
282.01403141789251
 11
559.79909182208371
 21
298.343604302031
  0
LINE
  8
_0-0_本体
  6
CONTINUOUS
 62
   18
 10
559.79909182208371
 20
282.01403141789251
 11
557.12866470622214
 21
279.34360430203105
  0
LINE
  8
_0-7_ハッチ
  6
CONTINUOUS
 62
   18
 10
607.79909182208371
 20
292.24890939165334
 11
581.18842550125714
 21
318.85957571248002
  0
TEXT
  8
_0-e_文字
 62
    4
 10
726.90055190877115
 20
383.38211709990924
 40
7.4999999999999574
 41
1.0000000000000051
 50
0
  1
(建築工事)
  0
TEXT
  8
_0-e_文字
 62
    7
 10
140.77031312311067
 20
365.56818673286131
 40
9
 41
1
 50
0
  1
外壁材t＝14
  0
LINE
  8
_0-f_
  6
CONTINUOUS
 62
    7
 10
406.78594697178744
 20
200.19862732833667
 11
383.98326501255883
 21
200.19862732833667
  0
LINE
  8
_0-f_
  6
CONTINUOUS
 62
    7
 10
383.98326501255883
 20
200.19862732833667
 11
374.90096696732951
 21
215.92960656496115
  0
TEXT
  8
_0-e_文字
 62
    4
 10
409.7489933101005
 20
359.88283429358552
 40
9
 41
1
 50
0
  1
外部・
  0
TEXT
  8
_0-e_文字
 62
    4
 10
153.1051480549246
 20
358.55801394138945
 40
7.5000000000000853
 41
0.9999999999999872
 50
0
  1
(建築工事)
  0
LINE
  8
_0-d_寸法
  6
CONTINUOUS
 62
   18
 10
367.60509182208375
 20
182.85637862989842
 11
367.60509182208375
 21
141.25637865225022
  0
LINE
  8
_0-d_寸法
  6
CONTINUOUS
 62
   18
 10
357.60509182208364
 20
182.85637862989842
 11
357.60509182208364
 21
141.25637865225022
  0
LINE
  8
_0-d_寸法
  6
CONTINUOUS
 62
   18
 10
352.83509183985348
 20
147.25637862989848
 11
357.60509182208364
 21
147.25637862989848
  0
CIRCLE
  8
_0-d_寸法
  6
CONTINUOUS
 62
   18
 10
357.60509182208364
 20
147.25637862989848
 40
1.7254760742187489
  0
CIRCLE
  8
_0-d_寸法
  6
CONTINUOUS
 62
   18
 10
367.60509182208375
 20
147.25637862989848
 40
1.7254760742187489
  0
LINE
  8
_0-d_寸法
  6
CONTINUOUS
 62
   18
 10
357.60509182208364
 20
147.25637862989848
 11
367.60509182208375
 21
147.25637862989848
  0
LINE
  8
_0-d_寸法
  6
CONTINUOUS
 62
   18
 10
411.60509182208381
 20
182.85637862989842
 11
411.60509182208381
 21
151.25637865225008
  0
LINE
  8
_0-d_寸法
  6
CONTINUOUS
 62
   18
 10
411.60509182208381
 20
157.25637862989834
 11
416.37509180431397
 21
157.25637862989834
  0
CIRCLE
  8
_0-d_寸法
  6
CONTINUOUS
 62
   18
 10
411.60509182208381
 20
157.25637862989834
 40
1.7254760742187489
  0
LINE
  8
_0-d_寸法
  6
CONTINUOUS
 62
   18
 10
362.83509183985325
 20
157.25637862989834
 11
367.60509182208375
 21
157.25637862989834
  0
CIRCLE
  8
_0-d_寸法
  6
CONTINUOUS
 62
   18
 10
367.60509182208375
 20
157.25637862989834
 40
1.7254760742187489
  0
LINE
  8
_0-d_寸法
  6
CONTINUOUS
 62
   18
 10
367.60509182208375
 20
157.25637862989834
 11
411.60509182208381
 21
157.25637862989834
  0
TEXT
  8
_0-e_文字
 62
    7
 10
141.67331035184219
 20
347.4576093843292
 40
9
 41
1
 50
0
  1
通気層t＝18
  0
TEXT
  8
_0-e_文字
 62
    4
 10
154.38162577052435
 20
339.05990654067165
 40
7.4999999999999574
 41
1.0000000000000042
 50
0
  1
(建築工事)
  0
TEXT
  8
_0-e_文字
 62
    7
 10
728.78315216009628
 20
326.5483973140112
 40
9
 41
1
 50
0
  1
防風シート
  0
LINE
  8
_0-d_寸法
  6
CONTINUOUS
 62
   18
 10
367.60509182208375
 20
147.25637862989848
 11
617.79909182208371
 21
147.25637862989848
  0
LINE
  8
_0-d_寸法
  6
CONTINUOUS
 62
   18
 10
617.79909182208371
 20
182.85637862989842
 11
617.79909182208371
 21
141.25637865225022
  0
LINE
  8
_0-d_寸法
  6
CONTINUOUS
 62
   18
 10
622.56909180431398
 20
147.25637862989848
 11
617.79909182208371
 21
147.25637862989848
  0
CIRCLE
  8
_0-d_寸法
  6
CONTINUOUS
 62
   18
 10
617.79909182208371
 20
147.25637862989848
 40
1.7254760742187489
  0
LINE
  8
_0-d_寸法
  6
CONTINUOUS
 62
   18
 10
607.79909182208371
 20
182.85637862989842
 11
607.79909182208371
 21
141.25637865225022
  0
CIRCLE
  8
_0-d_寸法
  6
CONTINUOUS
 62
   18
 10
607.79909182208371
 20
147.25637862989848
 40
1.7254760742187489
  0
LINE
  8
_0-d_寸法
  6
CONTINUOUS
 62
   18
 10
563.79909182208371
 20
157.25637862989834
 11
559.02909183985344
 21
157.25637862989834
  0
CIRCLE
  8
_0-d_寸法
  6
CONTINUOUS
 62
   18
 10
563.79909182208371
 20
157.25637862989834
 40
1.7254760742187489
  0
LINE
  8
_0-d_寸法
  6
CONTINUOUS
 62
   18
 10
563.79909182208371
 20
182.85637862989842
 11
563.79909182208371
 21
151.25637865225008
  0
LINE
  8
_0-d_寸法
  6
CONTINUOUS
 62
   18
 10
612.56909180431398
 20
157.25637862989834
 11
607.79909182208371
 21
157.25637862989834
  0
CIRCLE
  8
_0-d_寸法
  6
CONTINUOUS
 62
   18
 10
607.79909182208371
 20
157.25637862989834
 40
1.7254760742187489
  0
LINE
  8
_0-d_寸法
  6
CONTINUOUS
 62
   18
 10
607.79909182208371
 20
157.25637862989834
 11
563.79909182208371
 21
157.25637862989834
  0
TEXT
  8
_0-e_文字
 62
    4
 10
739.29950385901179
 20
317.40911406174996
 40
7.4999999999999574
 41
1.0000000000000051
 50
0
  1
(建築工事)
  0
TEXT
  8
_0-e_文字
 62
    7
 10
679.82021921312514
 20
305.37475266638654
 40
9
 41
1
 50
0
  1
変成シリコーンシーリング
  0
TEXT
  8
_0-e_文字
 62
    4
 10
740.18380001716503
 20
297.05937078759894
 40
7.4999999999998295
 41
1.0000000000000218
 50
0
  1
(建築工事)
  0
LINE
  8
_0-f_
  6
CONTINUOUS
 62
    7
 10
700.94688307482988
 20
330.75161661268407
 11
694.31820713622778
 21
342.23284831625853
  0
LINE
  8
_0-f_
  6
CONTINUOUS
 62
    7
 10
727.64330472833376
 20
330.75161661268407
 11
700.94688307482988
 21
330.75161661268407
  0
TEXT
  8
_0-e_文字
 62
    7
 10
728.3923423755823
 20
283.89967845173595
 40
9
 41
1
 50
0
  1
バックアップ材
  0
SOLID
  8
_0-f_
  6
CONTINUOUS
 62
    7
 10
617.73718684986397
 20
336.52120137750393
 11
624.58721694383303
 21
329.42778756482141
 12
620.12278002158769
 22
326.95310976918103
 13
620.12278002158769
 23
326.95310976918103
  0
SOLID
  8
_0-f_
  6
CONTINUOUS
 62
    7
 10
617.44769920184137
 20
324.65220780857726
 11
624.2977292958102
 21
317.55879399589486
 12
619.83329237356509
 22
315.08411620025436
 13
619.83329237356509
 23
315.08411620025436
  0
LINE
  8
_0-f_
  6
CONTINUOUS
 62
    7
 10
633.49566429866752
 20
309.22665076723194
 11
617.73718684986397
 21
336.52120137750393
  0
LINE
  8
_0-f_
  6
CONTINUOUS
 62
    7
 10
678.22275088083234
 20
309.22665076723194
 11
633.49566429866752
 21
309.22665076723194
  0
LINE
  8
_0-f_
  6
CONTINUOUS
 62
    7
 10
638.32503334162607
 20
288.49151556294561
 11
617.44769920184137
 21
324.65220780857726
  0
LINE
  8
_0-f_
  6
CONTINUOUS
 62
    7
 10
726.94822052065808
 20
288.49151556294561
 11
638.32503334162607
 21
288.49151556294561
  0
TEXT
  8
_0-e_文字
 62
    4
 10
1093.1738063089201
 20
282.0352735890325
 40
9
 41
1
 50
0
  1
玄関FL
  0
TEXT
  8
_0-e_文字
 62
    4
 10
753.63193676931019
 20
275.84448875161002
 40
7.4999999999998295
 41
1.0000000000000138
 50
0
  1
(建築工事)
  0
LINE
  8
_0-0_本体
  6
CONTINUOUS
 62
   18
 10
575.93543697852488
 20
343.343604302031
 11
573.79102474704496
 21
301.343604302031
  0
LINE
  8
_0-0_本体
  6
CONTINUOUS
 62
   18
 10
573.79102474704496
 20
301.343604302031
 11
554.79909182208371
 21
301.343604302031
  0
LINE
  8
_0-7_ハッチ
  6
CONTINUOUS
 62
   18
 10
367.60509182208375
 20
240.34360430203105
 11
367.60509182208375
 21
238.343604302031
  0
LINE
  8
_0-7_ハッチ
  6
CONTINUOUS
 62
   18
 10
367.6051000700777
 20
261.62972597673149
 11
357.60509182208364
 21
251.62971772873738
  0
LINE
  8
_0-7_ハッチ
  6
CONTINUOUS
 62
   18
 10
367.6051000700777
 20
259.50840563317195
 11
357.60509182208364
 21
249.5083973851778
  0
LINE
  8
_0-7_ハッチ
  6
CONTINUOUS
 62
   18
 10
367.6051000700777
 20
257.38708528961229
 11
357.60509182208364
 21
247.38707704161806
  0
LINE
  8
_0-7_ハッチ
  6
CONTINUOUS
 62
   18
 10
367.6051000700777
 20
255.26576494605263
 11
357.60509182208364
 21
245.26575669805857
  0
LINE
  8
_0-7_ハッチ
  6
CONTINUOUS
 62
   18
 10
367.6051000700777
 20
253.14444460249297
 11
357.60509182208364
 21
243.14443635449916
  0
LINE
  8
_0-7_ハッチ
  6
CONTINUOUS
 62
   18
 10
357.60509182208364
 20
261.62972597673149
 11
367.60509182208375
 21
251.62972597673149
  0
LINE
  8
_0-7_ハッチ
  6
CONTINUOUS
 62
   18
 10
357.60509182208364
 20
259.50840563317195
 11
367.60509182208375
 21
249.50840563317183
  0
LINE
  8
_0-7_ハッチ
  6
CONTINUOUS
 62
   18
 10
357.60509182208364
 20
257.38708528961229
 11
367.60509182208375
 21
247.38708528961209
  0
LINE
  8
_0-7_ハッチ
  6
CONTINUOUS
 62
   18
 10
357.60509182208364
 20
255.26576494605263
 11
367.60509182208375
 21
245.26576494605268
  0
LINE
  8
_0-7_ハッチ
  6
CONTINUOUS
 62
   18
 10
357.60509182208364
 20
253.14444460249314
 11
367.60509182208375
 21
243.14444460249319
  0
LINE
  8
_0-7_ハッチ
  6
CONTINUOUS
 62
   18
 10
367.6051000700777
 20
251.02312425893356
 11
357.60509182208364
 21
241.02311601093959
  0
LINE
  8
_0-7_ハッチ
  6
CONTINUOUS
 62
   18
 10
357.60509182208364
 20
251.02312425893356
 11
367.60509182208375
 21
241.02312425893371
  0
LINE
  8
_0-7_ハッチ
  6
CONTINUOUS
 62
   18
 10
367.6051000700777
 20
248.9018039153739
 11
357.60509182208364
 21
238.9017956673801
  0
LINE
  8
_0-7_ハッチ
  6
CONTINUOUS
 62
   18
 10
357.60509182208364
 20
248.90180391537399
 11
367.60509182208375
 21
238.90180391537405
  0
LINE
  8
_0-7_ハッチ
  6
CONTINUOUS
 62
   18
 10
357.60509182208364
 20
240.41652254113586
 11
359.6780100611885
 21
238.343604302031
  0
LINE
  8
_0-7_ハッチ
  6
CONTINUOUS
 62
   18
 10
367.6051000700777
 20
240.41652254113586
 11
365.532181830973
 21
238.343604302031
  0
LINE
  8
_0-7_ハッチ
  6
CONTINUOUS
 62
   18
 10
367.6051000700777
 20
246.78048357181433
 11
359.16822080029419
 21
238.343604302031
  0
LINE
  8
_0-7_ハッチ
  6
CONTINUOUS
 62
   18
 10
357.60509182208364
 20
246.7804835718145
 11
366.04197109186714
 21
238.343604302031
  0
LINE
  8
_0-7_ハッチ
  6
CONTINUOUS
 62
   18
 10
367.6051000700777
 20
244.65916322825493
 11
361.28954114385385
 21
238.343604302031
  0
LINE
  8
_0-7_ハッチ
  6
CONTINUOUS
 62
   18
 10
357.60509182208364
 20
244.65916322825501
 11
363.92065074830765
 21
238.343604302031
  0
LINE
  8
_0-7_ハッチ
  6
CONTINUOUS
 62
   18
 10
367.6051000700777
 20
242.53784288469535
 11
363.41086148741351
 21
238.343604302031
  0
LINE
  8
_0-7_ハッチ
  6
CONTINUOUS
 62
   18
 10
357.60509182208364
 20
242.53784288469552
 11
361.79933040474816
 21
238.343604302031
  0
LINE
  8
_0-7_ハッチ
  6
CONTINUOUS
 62
   18
 10
607.79909182208371
 20
240.34360430203105
 11
607.79909182208371
 21
238.343604302031
  0
LINE
  8
_0-7_ハッチ
  6
CONTINUOUS
 62
   18
 10
617.79909182208371
 20
259.50840563317195
 11
607.79909182208371
 21
249.50840563317183
  0
LINE
  8
_0-7_ハッチ
  6
CONTINUOUS
 62
   18
 10
617.79909182208371
 20
257.38708528961229
 11
607.79909182208371
 21
247.38708528961209
  0
LINE
  8
_0-7_ハッチ
  6
CONTINUOUS
 62
   18
 10
617.79909182208371
 20
255.26576494605263
 11
607.79909182208371
 21
245.26576494605268
  0
LINE
  8
_0-7_ハッチ
  6
CONTINUOUS
 62
   18
 10
617.79909182208371
 20
253.14444460249314
 11
607.79909182208371
 21
243.14444460249243
  0
LINE
  8
_0-7_ハッチ
  6
CONTINUOUS
 62
   18
 10
607.79908357408954
 20
259.50840563317195
 11
617.79909182208371
 21
249.5083973851778
  0
LINE
  8
_0-7_ハッチ
  6
CONTINUOUS
 62
   18
 10
607.79908357408954
 20
257.38708528961229
 11
617.79909182208371
 21
247.3870770416184
  0
LINE
  8
_0-7_ハッチ
  6
CONTINUOUS
 62
   18
 10
607.79908357408954
 20
255.26576494605263
 11
617.79909182208371
 21
245.26575669805874
  0
LINE
  8
_0-7_ハッチ
  6
CONTINUOUS
 62
   18
 10
607.79908357408954
 20
253.14444460249297
 11
617.79909182208371
 21
243.14443635450027
  0
LINE
  8
_0-7_ハッチ
  6
CONTINUOUS
 62
   18
 10
607.79908357408999
 20
251.02312425893356
 11
617.79909182208405
 21
241.02311601094078
  0
LINE
  8
_0-7_ハッチ
  6
CONTINUOUS
 62
   18
 10
617.79909182208405
 20
251.02312425893365
 11
607.79909182208416
 21
241.02312425893302
  0
LINE
  8
_0-7_ハッチ
  6
CONTINUOUS
 62
   18
 10
607.79908357409033
 20
248.90180391537399
 11
617.79909182208451
 21
238.90179566738129
  0
LINE
  8
_0-7_ハッチ
  6
CONTINUOUS
 62
   18
 10
617.79909182208451
 20
248.90180391537424
 11
607.79909182208462
 21
238.90180391537345
  0
LINE
  8
_0-7_ハッチ
  6
CONTINUOUS
 62
   18
 10
607.79908357409204
 20
240.41652254113603
 11
609.87200181319724
 21
238.343604302031
  0
LINE
  8
_0-7_ハッチ
  6
CONTINUOUS
 62
   18
 10
617.7990918220861
 20
240.41652254113629
 11
615.72617358298123
 21
238.343604302031
  0
LINE
  8
_0-7_ハッチ
  6
CONTINUOUS
 62
   18
 10
607.79908357409079
 20
246.7804835718145
 11
616.23596284387554
 21
238.343604302031
  0
LINE
  8
_0-7_ハッチ
  6
CONTINUOUS
 62
   18
 10
617.79909182208507
 20
246.78048357181467
 11
609.36221255230191
 21
238.343604302031
  0
LINE
  8
_0-7_ハッチ
  6
CONTINUOUS
 62
   18
 10
607.79908357409113
 20
244.65916322825501
 11
614.11464250031599
 21
238.343604302031
  0
LINE
  8
_0-7_ハッチ
  6
CONTINUOUS
 62
   18
 10
617.79909182208542
 20
244.65916322825518
 11
611.48353289586169
 21
238.343604302031
  0
LINE
  8
_0-7_ハッチ
  6
CONTINUOUS
 62
   18
 10
607.79908357409158
 20
242.53784288469561
 11
611.99332215675668
 21
238.343604302031
  0
LINE
  8
_0-7_ハッチ
  6
CONTINUOUS
 62
   18
 10
617.79909182208576
 20
242.53784288469569
 11
613.60485323942157
 21
238.343604302031
  0
LINE
  8
_0-0_本体
  6
CONTINUOUS
 62
    7
 10
352.70419182208389
 20
283.53220431091574
 11
351.8124918220837
 21
279.47100431091587
  0
LINE
  8
_0-0_本体
  6
CONTINUOUS
 62
    7
 10
351.8124918220837
 20
279.47100431091587
 11
350.92079182208386
 21
278.69260431091573
  0
LINE
  8
_0-0_本体
  6
CONTINUOUS
 62
    7
 10
350.92079182208386
 20
278.69260431091573
 11
351.8124918220837
 21
284.31060431091589
  0
LINE
  8
_0-0_本体
  6
CONTINUOUS
 62
    7
 10
351.8124918220837
 20
284.31060431091589
 11
352.70419182208389
 21
283.53220431091574
  0
LINE
  8
_0-0_本体
  6
CONTINUOUS
 62
    7
 10
353.59599182208365
 20
284.31060431091589
 11
352.70419182208389
 21
278.69260431091573
  0
LINE
  8
_0-0_本体
  6
CONTINUOUS
 62
    7
 10
352.70419182208389
 20
278.69260431091573
 11
351.8124918220837
 21
279.47100431091587
  0
LINE
  8
_0-0_本体
  6
CONTINUOUS
 62
    7
 10
351.8124918220837
 20
279.47100431091587
 11
352.70419182208389
 21
283.53220431091574
  0
LINE
  8
_0-0_本体
  6
CONTINUOUS
 62
    7
 10
352.70419182208389
 20
283.53220431091574
 11
353.59599182208365
 21
284.31060431091589
  0
LINE
  8
_0-0_本体
  6
CONTINUOUS
 62
    7
 10
354.48769182208366
 20
283.53220431091574
 11
353.59599182208365
 21
279.47100431091587
  0
LINE
  8
_0-0_本体
  6
CONTINUOUS
 62
    7
 10
353.59599182208365
 20
279.47100431091587
 11
352.70419182208389
 21
278.69260431091573
  0
LINE
  8
_0-0_本体
  6
CONTINUOUS
 62
    7
 10
352.70419182208389
 20
278.69260431091573
 11
353.59599182208365
 21
284.31060431091589
  0
LINE
  8
_0-0_本体
  6
CONTINUOUS
 62
    7
 10
353.59599182208365
 20
284.31060431091589
 11
354.48769182208366
 21
283.53220431091574
  0
LINE
  8
_0-0_本体
  6
CONTINUOUS
 62
    7
 10
355.37939182208402
 20
284.31060431091589
 11
354.48769182208366
 21
278.69260431091573
  0
LINE
  8
_0-0_本体
  6
CONTINUOUS
 62
    7
 10
354.48769182208366
 20
278.69260431091573
 11
353.59599182208365
 21
279.47100431091587
  0
LINE
  8
_0-0_本体
  6
CONTINUOUS
 62
    7
 10
353.59599182208365
 20
279.47100431091587
 11
354.48769182208366
 21
283.53220431091574
  0
LINE
  8
_0-0_本体
  6
CONTINUOUS
 62
    7
 10
354.48769182208366
 20
283.53220431091574
 11
355.37939182208402
 21
284.31060431091589
  0
LINE
  8
_0-0_本体
  6
CONTINUOUS
 62
    7
 10
356.27119182208378
 20
283.53220431091574
 11
355.37939182208402
 21
279.47100431091587
  0
LINE
  8
_0-0_本体
  6
CONTINUOUS
 62
    7
 10
355.37939182208402
 20
279.47100431091587
 11
354.48769182208366
 21
278.69260431091573
  0
LINE
  8
_0-0_本体
  6
CONTINUOUS
 62
    7
 10
354.48769182208366
 20
278.69260431091573
 11
355.37939182208402
 21
284.31060431091589
  0
LINE
  8
_0-0_本体
  6
CONTINUOUS
 62
    7
 10
355.37939182208402
 20
284.31060431091589
 11
356.27119182208378
 21
283.53220431091574
  0
LINE
  8
_0-0_本体
  6
CONTINUOUS
 62
    7
 10
357.16289182208379
 20
284.31060431091589
 11
356.27119182208378
 21
278.69260431091573
  0
LINE
  8
_0-0_本体
  6
CONTINUOUS
 62
    7
 10
356.27119182208378
 20
278.69260431091573
 11
355.37939182208402
 21
279.47100431091587
  0
LINE
  8
_0-0_本体
  6
CONTINUOUS
 62
    7
 10
355.37939182208402
 20
279.47100431091587
 11
356.27119182208378
 21
283.53220431091574
  0
LINE
  8
_0-0_本体
  6
CONTINUOUS
 62
    7
 10
356.27119182208378
 20
283.53220431091574
 11
357.16289182208379
 21
284.31060431091589
  0
LINE
  8
_0-0_本体
  6
CONTINUOUS
 62
    7
 10
358.05449182208389
 20
283.53220431091574
 11
357.16289182208379
 21
279.47100431091587
  0
LINE
  8
_0-0_本体
  6
CONTINUOUS
 62
    7
 10
357.16289182208379
 20
279.47100431091587
 11
356.27119182208378
 21
278.69260431091573
  0
LINE
  8
_0-0_本体
  6
CONTINUOUS
 62
    7
 10
356.27119182208378
 20
278.69260431091573
 11
357.16289182208379
 21
284.31060431091589
  0
LINE
  8
_0-0_本体
  6
CONTINUOUS
 62
    7
 10
357.16289182208379
 20
284.31060431091589
 11
358.05449182208389
 21
283.53220431091574
  0
LINE
  8
_0-0_本体
  6
CONTINUOUS
 62
    7
 10
358.94629182208382
 20
284.31060431091589
 11
358.05449182208389
 21
278.69260431091573
  0
LINE
  8
_0-0_本体
  6
CONTINUOUS
 62
    7
 10
358.05449182208389
 20
278.69260431091573
 11
357.16289182208379
 21
279.47100431091587
  0
LINE
  8
_0-0_本体
  6
CONTINUOUS
 62
    7
 10
357.16289182208379
 20
279.47100431091587
 11
358.05449182208389
 21
283.53220431091574
  0
LINE
  8
_0-0_本体
  6
CONTINUOUS
 62
    7
 10
358.05449182208389
 20
283.53220431091574
 11
358.94629182208382
 21
284.31060431091589
  0
LINE
  8
_0-0_本体
  6
CONTINUOUS
 62
    7
 10
359.83799182208367
 20
283.53220431091574
 11
358.94629182208382
 21
279.47100431091587
  0
LINE
  8
_0-0_本体
  6
CONTINUOUS
 62
    7
 10
358.94629182208382
 20
279.47100431091587
 11
358.05449182208389
 21
278.69260431091573
  0
LINE
  8
_0-0_本体
  6
CONTINUOUS
 62
    7
 10
358.05449182208389
 20
278.69260431091573
 11
358.94629182208382
 21
284.31060431091589
  0
LINE
  8
_0-0_本体
  6
CONTINUOUS
 62
    7
 10
358.94629182208382
 20
284.31060431091589
 11
359.83799182208367
 21
283.53220431091574
  0
LINE
  8
_0-0_本体
  6
CONTINUOUS
 62
    7
 10
360.72969182208385
 20
284.31060431091589
 11
359.83799182208367
 21
278.69260431091573
  0
LINE
  8
_0-0_本体
  6
CONTINUOUS
 62
    7
 10
359.83799182208367
 20
278.69260431091573
 11
358.94629182208382
 21
279.47100431091587
  0
LINE
  8
_0-0_本体
  6
CONTINUOUS
 62
    7
 10
358.94629182208382
 20
279.47100431091587
 11
359.83799182208367
 21
283.53220431091574
  0
LINE
  8
_0-0_本体
  6
CONTINUOUS
 62
    7
 10
359.83799182208367
 20
283.53220431091574
 11
360.72969182208385
 21
284.31060431091589
  0
LINE
  8
_0-0_本体
  6
CONTINUOUS
 62
    7
 10
361.62149182208395
 20
283.53220431091574
 11
360.72969182208385
 21
279.47100431091587
  0
LINE
  8
_0-0_本体
  6
CONTINUOUS
 62
    7
 10
360.72969182208385
 20
279.47100431091587
 11
359.83799182208367
 21
278.69260431091573
  0
LINE
  8
_0-0_本体
  6
CONTINUOUS
 62
    7
 10
359.83799182208367
 20
278.69260431091573
 11
360.72969182208385
 21
284.31060431091589
  0
LINE
  8
_0-0_本体
  6
CONTINUOUS
 62
    7
 10
360.72969182208385
 20
284.31060431091589
 11
361.62149182208395
 21
283.53220431091574
  0
LINE
  8
_0-0_本体
  6
CONTINUOUS
 62
    7
 10
362.5131918220838
 20
284.31060431091589
 11
361.62149182208395
 21
278.69260431091573
  0
LINE
  8
_0-0_本体
  6
CONTINUOUS
 62
    7
 10
361.62149182208395
 20
278.69260431091573
 11
360.72969182208385
 21
279.47100431091587
  0
LINE
  8
_0-0_本体
  6
CONTINUOUS
 62
    7
 10
360.72969182208385
 20
279.47100431091587
 11
361.62149182208395
 21
283.53220431091574
  0
LINE
  8
_0-0_本体
  6
CONTINUOUS
 62
    7
 10
361.62149182208395
 20
283.53220431091574
 11
362.5131918220838
 21
284.31060431091589
  0
LINE
  8
_0-0_本体
  6
CONTINUOUS
 62
    7
 10
363.40489182208364
 20
283.53220431091574
 11
362.5131918220838
 21
279.47100431091587
  0
LINE
  8
_0-0_本体
  6
CONTINUOUS
 62
    7
 10
362.5131918220838
 20
279.47100431091587
 11
361.62149182208395
 21
278.69260431091573
  0
LINE
  8
_0-0_本体
  6
CONTINUOUS
 62
    7
 10
361.62149182208395
 20
278.69260431091573
 11
362.5131918220838
 21
284.31060431091589
  0
LINE
  8
_0-0_本体
  6
CONTINUOUS
 62
    7
 10
362.5131918220838
 20
284.31060431091589
 11
363.40489182208364
 21
283.53220431091574
  0
LINE
  8
_0-0_本体
  6
CONTINUOUS
 62
    7
 10
364.29669182208374
 20
284.31060431091589
 11
363.40489182208364
 21
278.69260431091573
  0
LINE
  8
_0-0_本体
  6
CONTINUOUS
 62
    7
 10
363.40489182208364
 20
278.69260431091573
 11
362.5131918220838
 21
279.47100431091587
  0
LINE
  8
_0-0_本体
  6
CONTINUOUS
 62
    7
 10
362.5131918220838
 20
279.47100431091587
 11
363.40489182208364
 21
283.53220431091574
  0
LINE
  8
_0-0_本体
  6
CONTINUOUS
 62
    7
 10
363.40489182208364
 20
283.53220431091574
 11
364.29669182208374
 21
284.31060431091589
  0
LINE
  8
_0-0_本体
  6
CONTINUOUS
 62
    7
 10
365.18839182208376
 20
283.53220431091574
 11
364.29669182208374
 21
279.47100431091587
  0
LINE
  8
_0-0_本体
  6
CONTINUOUS
 62
    7
 10
364.29669182208374
 20
279.47100431091587
 11
363.40489182208364
 21
278.69260431091573
  0
LINE
  8
_0-0_本体
  6
CONTINUOUS
 62
    7
 10
363.40489182208364
 20
278.69260431091573
 11
364.29669182208374
 21
284.31060431091589
  0
LINE
  8
_0-0_本体
  6
CONTINUOUS
 62
    7
 10
364.29669182208374
 20
284.31060431091589
 11
365.18839182208376
 21
283.53220431091574
  0
LINE
  8
_0-0_本体
  6
CONTINUOUS
 62
    7
 10
366.07999182208368
 20
284.31060431091589
 11
365.18839182208376
 21
278.69260431091573
  0
LINE
  8
_0-0_本体
  6
CONTINUOUS
 62
    7
 10
365.18839182208376
 20
278.69260431091573
 11
364.29669182208374
 21
279.47100431091587
  0
LINE
  8
_0-0_本体
  6
CONTINUOUS
 62
    7
 10
364.29669182208374
 20
279.47100431091587
 11
365.18839182208376
 21
283.53220431091574
  0
LINE
  8
_0-0_本体
  6
CONTINUOUS
 62
    7
 10
365.18839182208376
 20
283.53220431091574
 11
366.07999182208368
 21
284.31060431091589
  0
LINE
  8
_0-0_本体
  6
CONTINUOUS
 62
    7
 10
366.97179182208379
 20
283.53220431091574
 11
366.07999182208368
 21
279.47100431091587
  0
LINE
  8
_0-0_本体
  6
CONTINUOUS
 62
    7
 10
366.07999182208368
 20
279.47100431091587
 11
365.18839182208376
 21
278.69260431091573
  0
LINE
  8
_0-0_本体
  6
CONTINUOUS
 62
    7
 10
365.18839182208376
 20
278.69260431091573
 11
366.07999182208368
 21
284.31060431091589
  0
LINE
  8
_0-0_本体
  6
CONTINUOUS
 62
    7
 10
366.07999182208368
 20
284.31060431091589
 11
366.97179182208379
 21
283.53220431091574
  0
LINE
  8
_0-0_本体
  6
CONTINUOUS
 62
    7
 10
367.8634918220838
 20
284.31060431091589
 11
366.97179182208379
 21
278.69260431091573
  0
LINE
  8
_0-0_本体
  6
CONTINUOUS
 62
    7
 10
366.97179182208379
 20
278.69260431091573
 11
366.07999182208368
 21
279.47100431091587
  0
LINE
  8
_0-0_本体
  6
CONTINUOUS
 62
    7
 10
366.07999182208368
 20
279.47100431091587
 11
366.97179182208379
 21
283.53220431091574
  0
LINE
  8
_0-0_本体
  6
CONTINUOUS
 62
    7
 10
366.97179182208379
 20
283.53220431091574
 11
367.8634918220838
 21
284.31060431091589
  0
LINE
  8
_0-0_本体
  6
CONTINUOUS
 62
    7
 10
368.75519182208382
 20
283.53220431091574
 11
367.8634918220838
 21
279.47100431091587
  0
LINE
  8
_0-0_本体
  6
CONTINUOUS
 62
    7
 10
367.8634918220838
 20
279.47100431091587
 11
366.97179182208379
 21
278.69260431091573
  0
LINE
  8
_0-0_本体
  6
CONTINUOUS
 62
    7
 10
366.97179182208379
 20
278.69260431091573
 11
367.8634918220838
 21
284.31060431091589
  0
LINE
  8
_0-0_本体
  6
CONTINUOUS
 62
    7
 10
367.8634918220838
 20
284.31060431091589
 11
368.75519182208382
 21
283.53220431091574
  0
LINE
  8
_0-0_本体
  6
CONTINUOUS
 62
    7
 10
369.64699182208392
 20
284.31060431091589
 11
368.75519182208382
 21
278.69260431091573
  0
LINE
  8
_0-0_本体
  6
CONTINUOUS
 62
    7
 10
368.75519182208382
 20
278.69260431091573
 11
367.8634918220838
 21
279.47100431091587
  0
LINE
  8
_0-0_本体
  6
CONTINUOUS
 62
    7
 10
367.8634918220838
 20
279.47100431091587
 11
368.75519182208382
 21
283.53220431091574
  0
LINE
  8
_0-0_本体
  6
CONTINUOUS
 62
    7
 10
368.75519182208382
 20
283.53220431091574
 11
369.64699182208392
 21
284.31060431091589
  0
LINE
  8
_0-0_本体
  6
CONTINUOUS
 62
    7
 10
370.53869182208376
 20
283.53220431091574
 11
369.64699182208392
 21
279.47100431091587
  0
LINE
  8
_0-0_本体
  6
CONTINUOUS
 62
    7
 10
369.64699182208392
 20
279.47100431091587
 11
368.75519182208382
 21
278.69260431091573
  0
LINE
  8
_0-0_本体
  6
CONTINUOUS
 62
    7
 10
368.75519182208382
 20
278.69260431091573
 11
369.64699182208392
 21
284.31060431091589
  0
LINE
  8
_0-0_本体
  6
CONTINUOUS
 62
    7
 10
369.64699182208392
 20
284.31060431091589
 11
370.53869182208376
 21
283.53220431091574
  0
LINE
  8
_0-0_本体
  6
CONTINUOUS
 62
    7
 10
371.43039182208395
 20
284.31060431091589
 11
370.53869182208376
 21
278.69260431091573
  0
LINE
  8
_0-0_本体
  6
CONTINUOUS
 62
    7
 10
370.53869182208376
 20
278.69260431091573
 11
369.64699182208392
 21
279.47100431091587
  0
LINE
  8
_0-0_本体
  6
CONTINUOUS
 62
    7
 10
369.64699182208392
 20
279.47100431091587
 11
370.53869182208376
 21
283.53220431091574
  0
LINE
  8
_0-0_本体
  6
CONTINUOUS
 62
    7
 10
370.53869182208376
 20
283.53220431091574
 11
371.43039182208395
 21
284.31060431091589
  0
LINE
  8
_0-0_本体
  6
CONTINUOUS
 62
    7
 10
372.32219182208371
 20
283.53220431091574
 11
371.43039182208395
 21
279.47100431091587
  0
LINE
  8
_0-0_本体
  6
CONTINUOUS
 62
    7
 10
371.43039182208395
 20
279.47100431091587
 11
370.53869182208376
 21
278.69260431091573
  0
LINE
  8
_0-0_本体
  6
CONTINUOUS
 62
    7
 10
370.53869182208376
 20
278.69260431091573
 11
371.43039182208395
 21
284.31060431091589
  0
LINE
  8
_0-0_本体
  6
CONTINUOUS
 62
    7
 10
371.43039182208395
 20
284.31060431091589
 11
372.32219182208371
 21
283.53220431091574
  0
LINE
  8
_0-0_本体
  6
CONTINUOUS
 62
    7
 10
373.21379182208364
 20
284.31060431091589
 11
372.32219182208371
 21
278.69260431091573
  0
LINE
  8
_0-0_本体
  6
CONTINUOUS
 62
    7
 10
372.32219182208371
 20
278.69260431091573
 11
371.43039182208395
 21
279.47100431091587
  0
LINE
  8
_0-0_本体
  6
CONTINUOUS
 62
    7
 10
371.43039182208395
 20
279.47100431091587
 11
372.32219182208371
 21
283.53220431091574
  0
LINE
  8
_0-0_本体
  6
CONTINUOUS
 62
    7
 10
372.32219182208371
 20
283.53220431091574
 11
373.21379182208364
 21
284.31060431091589
  0
LINE
  8
_0-0_本体
  6
CONTINUOUS
 62
    7
 10
374.10559182208374
 20
283.53220431091574
 11
373.21379182208364
 21
279.47100431091587
  0
LINE
  8
_0-0_本体
  6
CONTINUOUS
 62
    7
 10
373.21379182208364
 20
279.47100431091587
 11
372.32219182208371
 21
278.69260431091573
  0
LINE
  8
_0-0_本体
  6
CONTINUOUS
 62
    7
 10
372.32219182208371
 20
278.69260431091573
 11
373.21379182208364
 21
284.31060431091589
  0
LINE
  8
_0-0_本体
  6
CONTINUOUS
 62
    7
 10
373.21379182208364
 20
284.31060431091589
 11
374.10559182208374
 21
283.53220431091574
  0
LINE
  8
_0-0_本体
  6
CONTINUOUS
 62
    7
 10
374.99729182208375
 20
284.31060431091589
 11
374.10559182208374
 21
278.69260431091573
  0
LINE
  8
_0-0_本体
  6
CONTINUOUS
 62
    7
 10
374.10559182208374
 20
278.69260431091573
 11
373.21379182208364
 21
279.47100431091587
  0
LINE
  8
_0-0_本体
  6
CONTINUOUS
 62
    7
 10
373.21379182208364
 20
279.47100431091587
 11
374.10559182208374
 21
283.53220431091574
  0
LINE
  8
_0-0_本体
  6
CONTINUOUS
 62
    7
 10
374.10559182208374
 20
283.53220431091574
 11
374.99729182208375
 21
284.31060431091589
  0
LINE
  8
_0-0_本体
  6
CONTINUOUS
 62
    7
 10
375.88899182208377
 20
283.53220431091574
 11
374.99729182208375
 21
279.47100431091587
  0
LINE
  8
_0-0_本体
  6
CONTINUOUS
 62
    7
 10
374.99729182208375
 20
279.47100431091587
 11
374.10559182208374
 21
278.69260431091573
  0
LINE
  8
_0-0_本体
  6
CONTINUOUS
 62
    7
 10
374.10559182208374
 20
278.69260431091573
 11
374.99729182208375
 21
284.31060431091589
  0
LINE
  8
_0-0_本体
  6
CONTINUOUS
 62
    7
 10
374.99729182208375
 20
284.31060431091589
 11
375.88899182208377
 21
283.53220431091574
  0
LINE
  8
_0-0_本体
  6
CONTINUOUS
 62
    7
 10
376.7807918220837
 20
284.31060431091589
 11
375.88899182208377
 21
278.69260431091573
  0
LINE
  8
_0-0_本体
  6
CONTINUOUS
 62
    7
 10
375.88899182208377
 20
278.69260431091573
 11
374.99729182208375
 21
279.47100431091587
  0
LINE
  8
_0-0_本体
  6
CONTINUOUS
 62
    7
 10
374.99729182208375
 20
279.47100431091587
 11
375.88899182208377
 21
283.53220431091574
  0
LINE
  8
_0-0_本体
  6
CONTINUOUS
 62
    7
 10
375.88899182208377
 20
283.53220431091574
 11
376.7807918220837
 21
284.31060431091589
  0
LINE
  8
_0-0_本体
  6
CONTINUOUS
 62
    7
 10
377.67249182208388
 20
283.53220431091574
 11
376.7807918220837
 21
279.47100431091587
  0
LINE
  8
_0-0_本体
  6
CONTINUOUS
 62
    7
 10
376.7807918220837
 20
279.47100431091587
 11
375.88899182208377
 21
278.69260431091573
  0
LINE
  8
_0-0_本体
  6
CONTINUOUS
 62
    7
 10
375.88899182208377
 20
278.69260431091573
 11
376.7807918220837
 21
284.31060431091589
  0
LINE
  8
_0-0_本体
  6
CONTINUOUS
 62
    7
 10
376.7807918220837
 20
284.31060431091589
 11
377.67249182208388
 21
283.53220431091574
  0
LINE
  8
_0-0_本体
  6
CONTINUOUS
 62
    7
 10
378.5641918220839
 20
284.31060431091589
 11
377.67249182208388
 21
278.69260431091573
  0
LINE
  8
_0-0_本体
  6
CONTINUOUS
 62
    7
 10
377.67249182208388
 20
278.69260431091573
 11
376.7807918220837
 21
279.47100431091587
  0
LINE
  8
_0-0_本体
  6
CONTINUOUS
 62
    7
 10
376.7807918220837
 20
279.47100431091587
 11
377.67249182208388
 21
283.53220431091574
  0
LINE
  8
_0-0_本体
  6
CONTINUOUS
 62
    7
 10
377.67249182208388
 20
283.53220431091574
 11
378.5641918220839
 21
284.31060431091589
  0
LINE
  8
_0-0_本体
  6
CONTINUOUS
 62
    7
 10
379.45599182208366
 20
283.53220431091574
 11
378.5641918220839
 21
279.47100431091587
  0
LINE
  8
_0-0_本体
  6
CONTINUOUS
 62
    7
 10
378.5641918220839
 20
279.47100431091587
 11
377.67249182208388
 21
278.69260431091573
  0
LINE
  8
_0-0_本体
  6
CONTINUOUS
 62
    7
 10
377.67249182208388
 20
278.69260431091573
 11
378.5641918220839
 21
284.31060431091589
  0
LINE
  8
_0-0_本体
  6
CONTINUOUS
 62
    7
 10
378.5641918220839
 20
284.31060431091589
 11
379.45599182208366
 21
283.53220431091574
  0
LINE
  8
_0-0_本体
  6
CONTINUOUS
 62
    7
 10
380.34759182208376
 20
284.31060431091589
 11
379.45599182208366
 21
278.69260431091573
  0
LINE
  8
_0-0_本体
  6
CONTINUOUS
 62
    7
 10
379.45599182208366
 20
278.69260431091573
 11
378.5641918220839
 21
279.47100431091587
  0
LINE
  8
_0-0_本体
  6
CONTINUOUS
 62
    7
 10
378.5641918220839
 20
279.47100431091587
 11
379.45599182208366
 21
283.53220431091574
  0
LINE
  8
_0-0_本体
  6
CONTINUOUS
 62
    7
 10
379.45599182208366
 20
283.53220431091574
 11
380.34759182208376
 21
284.31060431091589
  0
LINE
  8
_0-0_本体
  6
CONTINUOUS
 62
    7
 10
381.23929182208394
 20
283.53220431091574
 11
380.34759182208376
 21
279.47100431091587
  0
LINE
  8
_0-0_本体
  6
CONTINUOUS
 62
    7
 10
380.34759182208376
 20
279.47100431091587
 11
379.45599182208366
 21
278.69260431091573
  0
LINE
  8
_0-0_本体
  6
CONTINUOUS
 62
    7
 10
379.45599182208366
 20
278.69260431091573
 11
380.34759182208376
 21
284.31060431091589
  0
LINE
  8
_0-0_本体
  6
CONTINUOUS
 62
    7
 10
380.34759182208376
 20
284.31060431091589
 11
381.23929182208394
 21
283.53220431091574
  0
LINE
  8
_0-0_本体
  6
CONTINUOUS
 62
    7
 10
382.1310918220837
 20
284.31060431091589
 11
381.23929182208394
 21
278.69260431091573
  0
LINE
  8
_0-0_本体
  6
CONTINUOUS
 62
    7
 10
381.23929182208394
 20
278.69260431091573
 11
380.34759182208376
 21
279.47100431091587
  0
LINE
  8
_0-0_本体
  6
CONTINUOUS
 62
    7
 10
380.34759182208376
 20
279.47100431091587
 11
381.23929182208394
 21
283.53220431091574
  0
LINE
  8
_0-0_本体
  6
CONTINUOUS
 62
    7
 10
381.23929182208394
 20
283.53220431091574
 11
382.1310918220837
 21
284.31060431091589
  0
LINE
  8
_0-0_本体
  6
CONTINUOUS
 62
    7
 10
383.02279182208372
 20
283.53220431091574
 11
382.1310918220837
 21
279.47100431091587
  0
LINE
  8
_0-0_本体
  6
CONTINUOUS
 62
    7
 10
382.1310918220837
 20
279.47100431091587
 11
381.23929182208394
 21
278.69260431091573
  0
LINE
  8
_0-0_本体
  6
CONTINUOUS
 62
    7
 10
381.23929182208394
 20
278.69260431091573
 11
382.1310918220837
 21
284.31060431091589
  0
LINE
  8
_0-0_本体
  6
CONTINUOUS
 62
    7
 10
382.1310918220837
 20
284.31060431091589
 11
383.02279182208372
 21
283.53220431091574
  0
LINE
  8
_0-0_本体
  6
CONTINUOUS
 62
    7
 10
383.91449182208373
 20
284.31060431091589
 11
383.02279182208372
 21
278.69260431091573
  0
LINE
  8
_0-0_本体
  6
CONTINUOUS
 62
    7
 10
383.02279182208372
 20
278.69260431091573
 11
382.1310918220837
 21
279.47100431091587
  0
LINE
  8
_0-0_本体
  6
CONTINUOUS
 62
    7
 10
382.1310918220837
 20
279.47100431091587
 11
383.02279182208372
 21
283.53220431091574
  0
LINE
  8
_0-0_本体
  6
CONTINUOUS
 62
    7
 10
383.02279182208372
 20
283.53220431091574
 11
383.91449182208373
 21
284.31060431091589
  0
LINE
  8
_0-0_本体
  6
CONTINUOUS
 62
    7
 10
384.80629182208384
 20
283.53220431091574
 11
383.91449182208373
 21
279.47100431091587
  0
LINE
  8
_0-0_本体
  6
CONTINUOUS
 62
    7
 10
383.91449182208373
 20
279.47100431091587
 11
383.02279182208372
 21
278.69260431091573
  0
LINE
  8
_0-0_本体
  6
CONTINUOUS
 62
    7
 10
383.02279182208372
 20
278.69260431091573
 11
383.91449182208373
 21
284.31060431091589
  0
LINE
  8
_0-0_本体
  6
CONTINUOUS
 62
    7
 10
383.91449182208373
 20
284.31060431091589
 11
384.80629182208384
 21
283.53220431091574
  0
LINE
  8
_0-0_本体
  6
CONTINUOUS
 62
    7
 10
385.69799182208385
 20
284.31060431091589
 11
384.80629182208384
 21
278.69260431091573
  0
LINE
  8
_0-0_本体
  6
CONTINUOUS
 62
    7
 10
384.80629182208384
 20
278.69260431091573
 11
383.91449182208373
 21
279.47100431091587
  0
LINE
  8
_0-0_本体
  6
CONTINUOUS
 62
    7
 10
383.91449182208373
 20
279.47100431091587
 11
384.80629182208384
 21
283.53220431091574
  0
LINE
  8
_0-0_本体
  6
CONTINUOUS
 62
    7
 10
384.80629182208384
 20
283.53220431091574
 11
385.69799182208385
 21
284.31060431091589
  0
LINE
  8
_0-0_本体
  6
CONTINUOUS
 62
    7
 10
385.69799182208385
 20
284.31060431091589
 11
388.20309182208371
 21
284.31060431091589
  0
ARC
  8
_0-0_本体
  6
CONTINUOUS
 62
    7
 10
388.20309182208371
 20
284.48060431091585
 40
0.1700000000000514
 50
270.00000000001199
 51
359.99999999998801
  0
LINE
  8
_0-0_本体
  6
CONTINUOUS
 62
    7
 10
388.37309182208372
 20
278.5016043109157
 11
388.37309182208372
 21
284.5016043109157
  0
ARC
  8
_0-0_本体
  6
CONTINUOUS
 62
    7
 10
388.20309182208371
 20
278.52260431091577
 40
0.1699999999999768
 50
359.99999999999403
 51
90.000000000013173
  0
LINE
  8
_0-0_本体
  6
CONTINUOUS
 62
    7
 10
388.20309182208371
 20
278.69260431091573
 11
386.58969182208369
 21
278.69260431091573
  0
LINE
  8
_0-0_本体
  6
CONTINUOUS
 62
    7
 10
386.58969182208369
 20
278.69260431091573
 11
385.69799182208385
 21
279.47100431091587
  0
LINE
  8
_0-0_本体
  6
CONTINUOUS
 62
    7
 10
385.69799182208385
 20
279.47100431091587
 11
384.80629182208384
 21
278.69260431091573
  0
LINE
  8
_0-0_本体
  6
CONTINUOUS
 62
    7
 10
384.80629182208384
 20
278.69260431091573
 11
385.69799182208385
 21
284.31060431091589
  0
LINE
  8
_0-0_本体
  6
CONTINUOUS
 62
    7
 10
388.37309182208372
 20
278.69260431091573
 11
392.60509182208369
 21
273.63040431091588
  0
LINE
  8
_0-0_本体
  6
CONTINUOUS
 62
    7
 10
388.37309182208372
 20
284.31060431091589
 11
392.60509182208369
 21
289.37280431091574
  0
LINE
  8
_0-0_本体
  6
CONTINUOUS
 62
    7
 10
392.60509182208369
 20
289.37280431091574
 11
392.60509182208369
 21
273.63040431091588
  0
LINE
  8
_0-0_本体
  6
CONTINUOUS
 62
    7
 10
350.92069182208411
 20
283.53220431091574
 11
351.8124918220837
 21
284.31060431091589
  0
LINE
  8
_0-0_本体
  6
CONTINUOUS
 62
    7
 10
350.02899182208375
 20
279.47100431091587
 11
350.92069182208411
 21
283.53220431091574
  0
LINE
  8
_0-0_本体
  6
CONTINUOUS
 62
    7
 10
350.92069182208411
 20
278.69260431091573
 11
350.02899182208375
 21
279.47100431091587
  0
LINE
  8
_0-0_本体
  6
CONTINUOUS
 62
    7
 10
351.8124918220837
 20
284.31060431091589
 11
350.92069182208411
 21
278.69260431091573
  0
LINE
  8
_0-0_本体
  6
CONTINUOUS
 62
    7
 10
350.02899182208375
 20
284.31060431091589
 11
350.92069182208411
 21
283.53220431091574
  0
LINE
  8
_0-0_本体
  6
CONTINUOUS
 62
    7
 10
349.13729182208374
 20
278.69260431091573
 11
350.02899182208375
 21
284.31060431091589
  0
LINE
  8
_0-0_本体
  6
CONTINUOUS
 62
    7
 10
350.02899182208375
 20
279.47100431091587
 11
349.13729182208374
 21
278.69260431091573
  0
LINE
  8
_0-0_本体
  6
CONTINUOUS
 62
    7
 10
350.92069182208411
 20
283.53220431091574
 11
350.02899182208375
 21
279.47100431091587
  0
LINE
  8
_0-0_本体
  6
CONTINUOUS
 62
    7
 10
349.13719182208399
 20
283.53220431091574
 11
350.02899182208375
 21
284.31060431091589
  0
LINE
  8
_0-0_本体
  6
CONTINUOUS
 62
    7
 10
348.24549182208398
 20
279.47100431091587
 11
349.13719182208399
 21
283.53220431091574
  0
LINE
  8
_0-0_本体
  6
CONTINUOUS
 62
    7
 10
349.13719182208399
 20
278.69260431091573
 11
348.24549182208398
 21
279.47100431091587
  0
LINE
  8
_0-0_本体
  6
CONTINUOUS
 62
    7
 10
350.02899182208375
 20
284.31060431091589
 11
349.13719182208399
 21
278.69260431091573
  0
LINE
  8
_0-0_本体
  6
CONTINUOUS
 62
    7
 10
348.24549182208398
 20
284.31060431091589
 11
349.13719182208399
 21
283.53220431091574
  0
LINE
  8
_0-0_本体
  6
CONTINUOUS
 62
    7
 10
347.35379182208379
 20
278.69260431091573
 11
348.24549182208398
 21
284.31060431091589
  0
LINE
  8
_0-0_本体
  6
CONTINUOUS
 62
    7
 10
348.24549182208398
 20
279.47100431091587
 11
347.35379182208379
 21
278.69260431091573
  0
LINE
  8
_0-0_本体
  6
CONTINUOUS
 62
    7
 10
349.13719182208399
 20
283.53220431091574
 11
348.24549182208398
 21
279.47100431091587
  0
LINE
  8
_0-0_本体
  6
CONTINUOUS
 62
    7
 10
336.65299182208378
 20
283.53220431091574
 11
335.76129182208376
 21
279.47100431091587
  0
LINE
  8
_0-0_本体
  6
CONTINUOUS
 62
    7
 10
335.76129182208376
 20
279.47100431091587
 11
334.86959182208375
 21
278.69260431091573
  0
LINE
  8
_0-0_本体
  6
CONTINUOUS
 62
    7
 10
334.86959182208375
 20
278.69260431091573
 11
335.76129182208376
 21
284.31060431091589
  0
LINE
  8
_0-0_本体
  6
CONTINUOUS
 62
    7
 10
335.76129182208376
 20
284.31060431091589
 11
336.65299182208378
 21
283.53220431091574
  0
LINE
  8
_0-0_本体
  6
CONTINUOUS
 62
    7
 10
337.54479182208388
 20
284.31060431091589
 11
336.65299182208378
 21
278.69260431091573
  0
LINE
  8
_0-0_本体
  6
CONTINUOUS
 62
    7
 10
336.65299182208378
 20
278.69260431091573
 11
335.76129182208376
 21
279.47100431091587
  0
LINE
  8
_0-0_本体
  6
CONTINUOUS
 62
    7
 10
335.76129182208376
 20
279.47100431091587
 11
336.65299182208378
 21
283.53220431091574
  0
LINE
  8
_0-0_本体
  6
CONTINUOUS
 62
    7
 10
336.65299182208378
 20
283.53220431091574
 11
337.54479182208388
 21
284.31060431091589
  0
LINE
  8
_0-0_本体
  6
CONTINUOUS
 62
    7
 10
338.43649182208372
 20
283.53220431091574
 11
337.54479182208388
 21
279.47100431091587
  0
LINE
  8
_0-0_本体
  6
CONTINUOUS
 62
    7
 10
337.54479182208388
 20
279.47100431091587
 11
336.65299182208378
 21
278.69260431091573
  0
LINE
  8
_0-0_本体
  6
CONTINUOUS
 62
    7
 10
336.65299182208378
 20
278.69260431091573
 11
337.54479182208388
 21
284.31060431091589
  0
LINE
  8
_0-0_本体
  6
CONTINUOUS
 62
    7
 10
337.54479182208388
 20
284.31060431091589
 11
338.43649182208372
 21
283.53220431091574
  0
LINE
  8
_0-0_本体
  6
CONTINUOUS
 62
    7
 10
339.32819182208391
 20
284.31060431091589
 11
338.43649182208372
 21
278.69260431091573
  0
LINE
  8
_0-0_本体
  6
CONTINUOUS
 62
    7
 10
338.43649182208372
 20
278.69260431091573
 11
337.54479182208388
 21
279.47100431091587
  0
LINE
  8
_0-0_本体
  6
CONTINUOUS
 62
    7
 10
337.54479182208388
 20
279.47100431091587
 11
338.43649182208372
 21
283.53220431091574
  0
LINE
  8
_0-0_本体
  6
CONTINUOUS
 62
    7
 10
338.43649182208372
 20
283.53220431091574
 11
339.32819182208391
 21
284.31060431091589
  0
LINE
  8
_0-0_本体
  6
CONTINUOUS
 62
    7
 10
340.21999182208401
 20
283.53220431091574
 11
339.32819182208391
 21
279.47100431091587
  0
LINE
  8
_0-0_本体
  6
CONTINUOUS
 62
    7
 10
339.32819182208391
 20
279.47100431091587
 11
338.43649182208372
 21
278.69260431091573
  0
LINE
  8
_0-0_本体
  6
CONTINUOUS
 62
    7
 10
338.43649182208372
 20
278.69260431091573
 11
339.32819182208391
 21
284.31060431091589
  0
LINE
  8
_0-0_本体
  6
CONTINUOUS
 62
    7
 10
339.32819182208391
 20
284.31060431091589
 11
340.21999182208401
 21
283.53220431091574
  0
LINE
  8
_0-0_本体
  6
CONTINUOUS
 62
    7
 10
341.11169182208369
 20
284.31060431091589
 11
340.21999182208401
 21
278.69260431091573
  0
LINE
  8
_0-0_本体
  6
CONTINUOUS
 62
    7
 10
340.21999182208401
 20
278.69260431091573
 11
339.32819182208391
 21
279.47100431091587
  0
LINE
  8
_0-0_本体
  6
CONTINUOUS
 62
    7
 10
339.32819182208391
 20
279.47100431091587
 11
340.21999182208401
 21
283.53220431091574
  0
LINE
  8
_0-0_本体
  6
CONTINUOUS
 62
    7
 10
340.21999182208401
 20
283.53220431091574
 11
341.11169182208369
 21
284.31060431091589
  0
LINE
  8
_0-0_本体
  6
CONTINUOUS
 62
    7
 10
342.00329182208395
 20
283.53220431091574
 11
341.11169182208369
 21
279.47100431091587
  0
LINE
  8
_0-0_本体
  6
CONTINUOUS
 62
    7
 10
341.11169182208369
 20
279.47100431091587
 11
340.21999182208401
 21
278.69260431091573
  0
LINE
  8
_0-0_本体
  6
CONTINUOUS
 62
    7
 10
340.21999182208401
 20
278.69260431091573
 11
341.11169182208369
 21
284.31060431091589
  0
LINE
  8
_0-0_本体
  6
CONTINUOUS
 62
    7
 10
341.11169182208369
 20
284.31060431091589
 11
342.00329182208395
 21
283.53220431091574
  0
LINE
  8
_0-0_本体
  6
CONTINUOUS
 62
    7
 10
342.89509182208371
 20
284.31060431091589
 11
342.00329182208395
 21
278.69260431091573
  0
LINE
  8
_0-0_本体
  6
CONTINUOUS
 62
    7
 10
342.00329182208395
 20
278.69260431091573
 11
341.11169182208369
 21
279.47100431091587
  0
LINE
  8
_0-0_本体
  6
CONTINUOUS
 62
    7
 10
341.11169182208369
 20
279.47100431091587
 11
342.00329182208395
 21
283.53220431091574
  0
LINE
  8
_0-0_本体
  6
CONTINUOUS
 62
    7
 10
342.00329182208395
 20
283.53220431091574
 11
342.89509182208371
 21
284.31060431091589
  0
LINE
  8
_0-0_本体
  6
CONTINUOUS
 62
    7
 10
343.78679182208373
 20
283.53220431091574
 11
342.89509182208371
 21
279.47100431091587
  0
LINE
  8
_0-0_本体
  6
CONTINUOUS
 62
    7
 10
342.89509182208371
 20
279.47100431091587
 11
342.00329182208395
 21
278.69260431091573
  0
LINE
  8
_0-0_本体
  6
CONTINUOUS
 62
    7
 10
342.00329182208395
 20
278.69260431091573
 11
342.89509182208371
 21
284.31060431091589
  0
LINE
  8
_0-0_本体
  6
CONTINUOUS
 62
    7
 10
342.89509182208371
 20
284.31060431091589
 11
343.78679182208373
 21
283.53220431091574
  0
LINE
  8
_0-0_本体
  6
CONTINUOUS
 62
    7
 10
344.67849182208374
 20
284.31060431091589
 11
343.78679182208373
 21
278.69260431091573
  0
LINE
  8
_0-0_本体
  6
CONTINUOUS
 62
    7
 10
343.78679182208373
 20
278.69260431091573
 11
342.89509182208371
 21
279.47100431091587
  0
LINE
  8
_0-0_本体
  6
CONTINUOUS
 62
    7
 10
342.89509182208371
 20
279.47100431091587
 11
343.78679182208373
 21
283.53220431091574
  0
LINE
  8
_0-0_本体
  6
CONTINUOUS
 62
    7
 10
343.78679182208373
 20
283.53220431091574
 11
344.67849182208374
 21
284.31060431091589
  0
LINE
  8
_0-0_本体
  6
CONTINUOUS
 62
    7
 10
345.57029182208385
 20
283.53220431091574
 11
344.67849182208374
 21
279.47100431091587
  0
LINE
  8
_0-0_本体
  6
CONTINUOUS
 62
    7
 10
344.67849182208374
 20
279.47100431091587
 11
343.78679182208373
 21
278.69260431091573
  0
LINE
  8
_0-0_本体
  6
CONTINUOUS
 62
    7
 10
343.78679182208373
 20
278.69260431091573
 11
344.67849182208374
 21
284.31060431091589
  0
LINE
  8
_0-0_本体
  6
CONTINUOUS
 62
    7
 10
344.67849182208374
 20
284.31060431091589
 11
345.57029182208385
 21
283.53220431091574
  0
LINE
  8
_0-0_本体
  6
CONTINUOUS
 62
    7
 10
346.46199182208386
 20
284.31060431091589
 11
345.57029182208385
 21
278.69260431091573
  0
LINE
  8
_0-0_本体
  6
CONTINUOUS
 62
    7
 10
345.57029182208385
 20
278.69260431091573
 11
344.67849182208374
 21
279.47100431091587
  0
LINE
  8
_0-0_本体
  6
CONTINUOUS
 62
    7
 10
344.67849182208374
 20
279.47100431091587
 11
345.57029182208385
 21
283.53220431091574
  0
LINE
  8
_0-0_本体
  6
CONTINUOUS
 62
    7
 10
345.57029182208385
 20
283.53220431091574
 11
346.46199182208386
 21
284.31060431091589
  0
LINE
  8
_0-0_本体
  6
CONTINUOUS
 62
    7
 10
347.35369182208387
 20
283.53220431091574
 11
346.46199182208386
 21
279.47100431091587
  0
LINE
  8
_0-0_本体
  6
CONTINUOUS
 62
    7
 10
346.46199182208386
 20
279.47100431091587
 11
345.57029182208385
 21
278.69260431091573
  0
LINE
  8
_0-0_本体
  6
CONTINUOUS
 62
    7
 10
345.57029182208385
 20
278.69260431091573
 11
346.46199182208386
 21
284.31060431091589
  0
LINE
  8
_0-0_本体
  6
CONTINUOUS
 62
    7
 10
346.46199182208386
 20
284.31060431091589
 11
347.35369182208387
 21
283.53220431091574
  0
LINE
  8
_0-0_本体
  6
CONTINUOUS
 62
    7
 10
334.869491822084
 20
283.53220431091574
 11
335.76129182208376
 21
284.31060431091589
  0
LINE
  8
_0-0_本体
  6
CONTINUOUS
 62
    7
 10
333.97779182208365
 20
279.47100431091587
 11
334.869491822084
 21
283.53220431091574
  0
LINE
  8
_0-0_本体
  6
CONTINUOUS
 62
    7
 10
334.869491822084
 20
278.69260431091573
 11
333.97779182208365
 21
279.47100431091587
  0
LINE
  8
_0-0_本体
  6
CONTINUOUS
 62
    7
 10
335.76129182208376
 20
284.31060431091589
 11
334.869491822084
 21
278.69260431091573
  0
LINE
  8
_0-0_本体
  6
CONTINUOUS
 62
    7
 10
333.97779182208365
 20
284.31060431091589
 11
334.869491822084
 21
283.53220431091574
  0
LINE
  8
_0-0_本体
  6
CONTINUOUS
 62
    7
 10
333.08609182208363
 20
278.69260431091573
 11
333.97779182208365
 21
284.31060431091589
  0
LINE
  8
_0-0_本体
  6
CONTINUOUS
 62
    7
 10
333.97779182208365
 20
279.47100431091587
 11
333.08609182208363
 21
278.69260431091573
  0
LINE
  8
_0-0_本体
  6
CONTINUOUS
 62
    7
 10
334.869491822084
 20
283.53220431091574
 11
333.97779182208365
 21
279.47100431091587
  0
LINE
  8
_0-0_本体
  6
CONTINUOUS
 62
    7
 10
333.08599182208388
 20
283.53220431091574
 11
333.97779182208365
 21
284.31060431091589
  0
LINE
  8
_0-0_本体
  6
CONTINUOUS
 62
    7
 10
332.19429182208387
 20
279.47100431091587
 11
333.08599182208388
 21
283.53220431091574
  0
LINE
  8
_0-0_本体
  6
CONTINUOUS
 62
    7
 10
333.08599182208388
 20
278.69260431091573
 11
332.19429182208387
 21
279.47100431091587
  0
LINE
  8
_0-0_本体
  6
CONTINUOUS
 62
    7
 10
333.97779182208365
 20
284.31060431091589
 11
333.08599182208388
 21
278.69260431091573
  0
LINE
  8
_0-0_本体
  6
CONTINUOUS
 62
    7
 10
332.19429182208387
 20
284.31060431091589
 11
333.08599182208388
 21
283.53220431091574
  0
LINE
  8
_0-0_本体
  6
CONTINUOUS
 62
    7
 10
331.30259182208368
 20
278.69260431091573
 11
332.19429182208387
 21
284.31060431091589
  0
LINE
  8
_0-0_本体
  6
CONTINUOUS
 62
    7
 10
332.19429182208387
 20
279.47100431091587
 11
331.30259182208368
 21
278.69260431091573
  0
LINE
  8
_0-0_本体
  6
CONTINUOUS
 62
    7
 10
333.08599182208388
 20
283.53220431091574
 11
332.19429182208387
 21
279.47100431091587
  0
LINE
  8
_0-0_本体
  6
CONTINUOUS
 62
    7
 10
348.24549182208398
 20
284.31060431091589
 11
347.35369182208387
 21
278.69260431091573
  0
LINE
  8
_0-0_本体
  6
CONTINUOUS
 62
    7
 10
347.35369182208387
 20
278.69260431091573
 11
346.46199182208386
 21
279.47100431091587
  0
LINE
  8
_0-0_本体
  6
CONTINUOUS
 62
    7
 10
346.46199182208386
 20
279.47100431091587
 11
347.35369182208387
 21
283.53220431091574
  0
LINE
  8
_0-0_本体
  6
CONTINUOUS
 62
    7
 10
347.35369182208387
 20
283.53220431091574
 11
348.24549182208398
 21
284.31060431091589
  0
LINE
  8
_0-0_本体
  6
CONTINUOUS
 62
    7
 10
331.30249182208394
 20
283.53220431091574
 11
332.19429182208387
 21
284.31060431091589
  0
LINE
  8
_0-0_本体
  6
CONTINUOUS
 62
    7
 10
330.41079182208375
 20
279.47100431091587
 11
331.30249182208394
 21
283.53220431091574
  0
LINE
  8
_0-0_本体
  6
CONTINUOUS
 62
    7
 10
331.30249182208394
 20
278.69260431091573
 11
330.41079182208375
 21
279.47100431091587
  0
LINE
  8
_0-0_本体
  6
CONTINUOUS
 62
    7
 10
332.19429182208387
 20
284.31060431091589
 11
331.30249182208394
 21
278.69260431091573
  0
LINE
  8
_0-0_本体
  6
CONTINUOUS
 62
    7
 10
330.41079182208375
 20
284.31060431091589
 11
331.30249182208394
 21
283.53220431091574
  0
LINE
  8
_0-0_本体
  6
CONTINUOUS
 62
    7
 10
329.51909182208374
 20
278.69260431091573
 11
330.41079182208375
 21
284.31060431091589
  0
LINE
  8
_0-0_本体
  6
CONTINUOUS
 62
    7
 10
330.41079182208375
 20
279.47100431091587
 11
329.51909182208374
 21
278.69260431091573
  0
LINE
  8
_0-0_本体
  6
CONTINUOUS
 62
    7
 10
331.30249182208394
 20
283.53220431091574
 11
330.41079182208375
 21
279.47100431091587
  0
LINE
  8
_0-0_本体
  6
CONTINUOUS
 62
    7
 10
329.51899182208399
 20
283.53220431091574
 11
330.41079182208375
 21
284.31060431091589
  0
LINE
  8
_0-0_本体
  6
CONTINUOUS
 62
    7
 10
328.62729182208381
 20
279.47100431091587
 11
329.51899182208399
 21
283.53220431091574
  0
LINE
  8
_0-0_本体
  6
CONTINUOUS
 62
    7
 10
329.51899182208399
 20
278.69260431091573
 11
328.62729182208381
 21
279.47100431091587
  0
LINE
  8
_0-0_本体
  6
CONTINUOUS
 62
    7
 10
330.41079182208375
 20
284.31060431091589
 11
329.51899182208399
 21
278.69260431091573
  0
LINE
  8
_0-0_本体
  6
CONTINUOUS
 62
    7
 10
328.62729182208381
 20
284.31060431091589
 11
329.51899182208399
 21
283.53220431091574
  0
LINE
  8
_0-0_本体
  6
CONTINUOUS
 62
    7
 10
327.73559182208396
 20
278.69260431091573
 11
328.62729182208381
 21
284.31060431091589
  0
LINE
  8
_0-0_本体
  6
CONTINUOUS
 62
    7
 10
328.62729182208381
 20
279.47100431091587
 11
327.73559182208396
 21
278.69260431091573
  0
LINE
  8
_0-0_本体
  6
CONTINUOUS
 62
    7
 10
329.51899182208399
 20
283.53220431091574
 11
328.62729182208381
 21
279.47100431091587
  0
LINE
  8
_0-0_本体
  6
CONTINUOUS
 62
    7
 10
326.84379182208386
 20
284.31060431091589
 11
327.73549182208387
 21
283.53220431091574
  0
LINE
  8
_0-0_本体
  6
CONTINUOUS
 62
    7
 10
325.95209182208384
 20
278.69260431091573
 11
326.84379182208386
 21
284.31060431091589
  0
LINE
  8
_0-0_本体
  6
CONTINUOUS
 62
    7
 10
326.84379182208386
 20
279.47100431091587
 11
325.95209182208384
 21
278.69260431091573
  0
LINE
  8
_0-0_本体
  6
CONTINUOUS
 62
    7
 10
327.73549182208387
 20
283.53220431091574
 11
326.84379182208386
 21
279.47100431091587
  0
LINE
  8
_0-0_本体
  6
CONTINUOUS
 62
    7
 10
327.73549182208387
 20
283.53220431091574
 11
328.62729182208381
 21
284.31060431091589
  0
LINE
  8
_0-0_本体
  6
CONTINUOUS
 62
    7
 10
326.84379182208386
 20
279.47100431091587
 11
327.73549182208387
 21
283.53220431091574
  0
LINE
  8
_0-0_本体
  6
CONTINUOUS
 62
    7
 10
327.73549182208387
 20
278.69260431091573
 11
326.84379182208386
 21
279.47100431091587
  0
LINE
  8
_0-0_本体
  6
CONTINUOUS
 62
    7
 10
328.62729182208381
 20
284.31060431091589
 11
327.73549182208387
 21
278.69260431091573
  0
LINE
  8
_0-0_本体
  6
CONTINUOUS
 62
    7
 10
325.74689182208385
 20
283.71140431091578
 11
325.95209182208384
 21
283.53220431091574
  0
LINE
  8
_0-0_本体
  6
CONTINUOUS
 62
    7
 10
326.84379182208386
 20
284.31060431091589
 11
325.95209182208384
 21
278.69260431091573
  0
LINE
  8
_0-0_本体
  6
CONTINUOUS
 62
    7
 10
325.95209182208384
 20
278.69260431091573
 11
325.06039182208383
 21
279.47100431091587
  0
LINE
  8
_0-0_本体
  6
CONTINUOUS
 62
    7
 10
325.06039182208383
 20
279.47100431091587
 11
325.95209182208384
 21
283.53220431091574
  0
LINE
  8
_0-0_本体
  6
CONTINUOUS
 62
    7
 10
325.95209182208384
 20
283.53220431091574
 11
326.84379182208386
 21
284.31060431091589
  0
LINE
  8
_0-0_本体
  6
CONTINUOUS
 62
    7
 10
325.74689182208385
 20
283.71140431091578
 11
317.60509182208369
 21
281.34360430203111
  0
LINE
  8
_0-0_本体
  6
CONTINUOUS
 62
    7
 10
317.60509182208369
 20
281.34360430203111
 11
325.07907760806432
 21
279.55610772464661
  0
LINE
  8
_0-0_本体
  6
CONTINUOUS
 62
    7
 10
318.37407617700421
 20
281.15969213764606
 11
318.44189809535942
 21
281.58696448052922
  0
LINE
  8
_0-0_本体
  6
CONTINUOUS
 62
    7
 10
324.33407744905765
 20
279.73428377053546
 11
324.92755208984136
 21
283.47312375559841
  0
LINE
  8
_0-0_本体
  6
CONTINUOUS
 62
    7
 10
323.58907729005114
 20
279.91245981642419
 11
324.1168453405312
 21
283.23735384621472
  0
LINE
  8
_0-0_本体
  6
CONTINUOUS
 62
    7
 10
322.84407713104429
 20
280.09063586231315
 11
323.30613859122104
 21
283.0015839368312
  0
LINE
  8
_0-0_本体
  6
CONTINUOUS
 62
    7
 10
322.09907697203761
 20
280.26881190820188
 11
322.49543184191054
 21
282.76581402744739
  0
LINE
  8
_0-0_本体
  6
CONTINUOUS
 62
    7
 10
321.35407681303093
 20
280.44698795409067
 11
321.68472509260039
 21
282.53004411806381
  0
LINE
  8
_0-0_本体
  6
CONTINUOUS
 62
    7
 10
320.60907665402442
 20
280.62516399997952
 11
320.87401834329006
 21
282.29427420868012
  0
LINE
  8
_0-0_本体
  6
CONTINUOUS
 62
    7
 10
319.86407649501757
 20
280.80334004586837
 11
320.06331159397973
 21
282.05850429929649
  0
LINE
  8
_0-0_本体
  6
CONTINUOUS
 62
    7
 10
319.11907633601089
 20
280.98151609175727
 11
319.25260484466958
 21
281.82273438991291
  0
LINE
  8
_0-0_本体
  6
DASHED1
 62
    7
 10
392.60509182208369
 20
273.63040431091588
 11
405.60509182208364
 21
273.63040431091588
  0
LINE
  8
_0-0_本体
  6
DASHED1
 62
    7
 10
392.60509182208369
 20
289.37280431091574
 11
405.60509182208364
 21
289.37280431091574
  0
LINE
  8
_0-0_本体
  6
CONTINUOUS
 62
    7
 10
405.60509182208364
 20
273.63040431091588
 11
411.60509182208381
 21
273.63040431091588
  0
LINE
  8
_0-0_本体
  6
CONTINUOUS
 62
    7
 10
405.60509182208364
 20
273.63040431091588
 11
405.60509182208364
 21
289.37280431091574
  0
LINE
  8
_0-0_本体
  6
CONTINUOUS
 62
    7
 10
411.60509182208381
 20
289.37280431091574
 11
405.60509182208364
 21
289.37280431091574
  0
LINE
  8
_0-0_本体
  6
CONTINUOUS
 62
    7
 10
412.60509182208375
 20
271.63040431091594
 11
412.60509182208375
 21
291.3728043109158
  0
LINE
  8
_0-0_本体
  6
CONTINUOUS
 62
    7
 10
411.60509182208381
 20
271.63040431091594
 11
412.60509182208375
 21
271.63040431091594
  0
LINE
  8
_0-0_本体
  6
CONTINUOUS
 62
    7
 10
411.60509182208381
 20
291.3728043109158
 11
412.60509182208375
 21
291.3728043109158
  0
LINE
  8
_0-0_本体
  6
CENTER2
 62
   18
 10
416.60509182208369
 20
281.34360430203111
 11
312.60509182208364
 21
281.34360430203111
  0
LINE
  8
_0-0_本体
  6
CONTINUOUS
 62
    7
 10
622.69999182208346
 20
283.53220431091574
 11
623.59169182208359
 21
279.47100431091587
  0
LINE
  8
_0-0_本体
  6
CONTINUOUS
 62
    7
 10
623.59169182208359
 20
279.47100431091587
 11
624.4833918220836
 21
278.69260431091573
  0
LINE
  8
_0-0_本体
  6
CONTINUOUS
 62
    7
 10
624.4833918220836
 20
278.69260431091573
 11
623.59169182208359
 21
284.31060431091589
  0
LINE
  8
_0-0_本体
  6
CONTINUOUS
 62
    7
 10
623.59169182208359
 20
284.31060431091589
 11
622.69999182208346
 21
283.53220431091574
  0
LINE
  8
_0-0_本体
  6
CONTINUOUS
 62
    7
 10
621.8081918220837
 20
284.31060431091589
 11
622.69999182208346
 21
278.69260431091573
  0
LINE
  8
_0-0_本体
  6
CONTINUOUS
 62
    7
 10
622.69999182208346
 20
278.69260431091573
 11
623.59169182208359
 21
279.47100431091587
  0
LINE
  8
_0-0_本体
  6
CONTINUOUS
 62
    7
 10
623.59169182208359
 20
279.47100431091587
 11
622.69999182208346
 21
283.53220431091574
  0
LINE
  8
_0-0_本体
  6
CONTINUOUS
 62
    7
 10
622.69999182208346
 20
283.53220431091574
 11
621.8081918220837
 21
284.31060431091589
  0
LINE
  8
_0-0_本体
  6
CONTINUOUS
 62
    7
 10
620.91649182208369
 20
283.53220431091574
 11
621.8081918220837
 21
279.47100431091587
  0
LINE
  8
_0-0_本体
  6
CONTINUOUS
 62
    7
 10
621.8081918220837
 20
279.47100431091587
 11
622.69999182208346
 21
278.69260431091573
  0
LINE
  8
_0-0_本体
  6
CONTINUOUS
 62
    7
 10
622.69999182208346
 20
278.69260431091573
 11
621.8081918220837
 21
284.31060431091589
  0
LINE
  8
_0-0_本体
  6
CONTINUOUS
 62
    7
 10
621.8081918220837
 20
284.31060431091589
 11
620.91649182208369
 21
283.53220431091574
  0
LINE
  8
_0-0_本体
  6
CONTINUOUS
 62
    7
 10
620.02479182208367
 20
284.31060431091589
 11
620.91649182208369
 21
278.69260431091573
  0
LINE
  8
_0-0_本体
  6
CONTINUOUS
 62
    7
 10
620.91649182208369
 20
278.69260431091573
 11
621.8081918220837
 21
279.47100431091587
  0
LINE
  8
_0-0_本体
  6
CONTINUOUS
 62
    7
 10
621.8081918220837
 20
279.47100431091587
 11
620.91649182208369
 21
283.53220431091574
  0
LINE
  8
_0-0_本体
  6
CONTINUOUS
 62
    7
 10
620.91649182208369
 20
283.53220431091574
 11
620.02479182208367
 21
284.31060431091589
  0
LINE
  8
_0-0_本体
  6
CONTINUOUS
 62
    7
 10
619.13299182208357
 20
283.53220431091574
 11
620.02479182208367
 21
279.47100431091587
  0
LINE
  8
_0-0_本体
  6
CONTINUOUS
 62
    7
 10
620.02479182208367
 20
279.47100431091587
 11
620.91649182208369
 21
278.69260431091573
  0
LINE
  8
_0-0_本体
  6
CONTINUOUS
 62
    7
 10
620.91649182208369
 20
278.69260431091573
 11
620.02479182208367
 21
284.31060431091589
  0
LINE
  8
_0-0_本体
  6
CONTINUOUS
 62
    7
 10
620.02479182208367
 20
284.31060431091589
 11
619.13299182208357
 21
283.53220431091574
  0
LINE
  8
_0-0_本体
  6
CONTINUOUS
 62
    7
 10
618.24129182208355
 20
284.31060431091589
 11
619.13299182208357
 21
278.69260431091573
  0
LINE
  8
_0-0_本体
  6
CONTINUOUS
 62
    7
 10
619.13299182208357
 20
278.69260431091573
 11
620.02479182208367
 21
279.47100431091587
  0
LINE
  8
_0-0_本体
  6
CONTINUOUS
 62
    7
 10
620.02479182208367
 20
279.47100431091587
 11
619.13299182208357
 21
283.53220431091574
  0
LINE
  8
_0-0_本体
  6
CONTINUOUS
 62
    7
 10
619.13299182208357
 20
283.53220431091574
 11
618.24129182208355
 21
284.31060431091589
  0
LINE
  8
_0-0_本体
  6
CONTINUOUS
 62
    7
 10
617.34969182208351
 20
283.53220431091574
 11
618.24129182208355
 21
279.47100431091587
  0
LINE
  8
_0-0_本体
  6
CONTINUOUS
 62
    7
 10
618.24129182208355
 20
279.47100431091587
 11
619.13299182208357
 21
278.69260431091573
  0
LINE
  8
_0-0_本体
  6
CONTINUOUS
 62
    7
 10
619.13299182208357
 20
278.69260431091573
 11
618.24129182208355
 21
284.31060431091589
  0
LINE
  8
_0-0_本体
  6
CONTINUOUS
 62
    7
 10
618.24129182208355
 20
284.31060431091589
 11
617.34969182208351
 21
283.53220431091574
  0
LINE
  8
_0-0_本体
  6
CONTINUOUS
 62
    7
 10
616.45789182208364
 20
284.31060431091589
 11
617.34969182208351
 21
278.69260431091573
  0
LINE
  8
_0-0_本体
  6
CONTINUOUS
 62
    7
 10
617.34969182208351
 20
278.69260431091573
 11
618.24129182208355
 21
279.47100431091587
  0
LINE
  8
_0-0_本体
  6
CONTINUOUS
 62
    7
 10
618.24129182208355
 20
279.47100431091587
 11
617.34969182208351
 21
283.53220431091574
  0
LINE
  8
_0-0_本体
  6
CONTINUOUS
 62
    7
 10
617.34969182208351
 20
283.53220431091574
 11
616.45789182208364
 21
284.31060431091589
  0
LINE
  8
_0-0_本体
  6
CONTINUOUS
 62
    7
 10
615.56619182208362
 20
283.53220431091574
 11
616.45789182208364
 21
279.47100431091587
  0
LINE
  8
_0-0_本体
  6
CONTINUOUS
 62
    7
 10
616.45789182208364
 20
279.47100431091587
 11
617.34969182208351
 21
278.69260431091573
  0
LINE
  8
_0-0_本体
  6
CONTINUOUS
 62
    7
 10
617.34969182208351
 20
278.69260431091573
 11
616.45789182208364
 21
284.31060431091589
  0
LINE
  8
_0-0_本体
  6
CONTINUOUS
 62
    7
 10
616.45789182208364
 20
284.31060431091589
 11
615.56619182208362
 21
283.53220431091574
  0
LINE
  8
_0-0_本体
  6
CONTINUOUS
 62
    7
 10
614.67449182208361
 20
284.31060431091589
 11
615.56619182208362
 21
278.69260431091573
  0
LINE
  8
_0-0_本体
  6
CONTINUOUS
 62
    7
 10
615.56619182208362
 20
278.69260431091573
 11
616.45789182208364
 21
279.47100431091587
  0
LINE
  8
_0-0_本体
  6
CONTINUOUS
 62
    7
 10
616.45789182208364
 20
279.47100431091587
 11
615.56619182208362
 21
283.53220431091574
  0
LINE
  8
_0-0_本体
  6
CONTINUOUS
 62
    7
 10
615.56619182208362
 20
283.53220431091574
 11
614.67449182208361
 21
284.31060431091589
  0
LINE
  8
_0-0_本体
  6
CONTINUOUS
 62
    7
 10
613.78269182208351
 20
283.53220431091574
 11
614.67449182208361
 21
279.47100431091587
  0
LINE
  8
_0-0_本体
  6
CONTINUOUS
 62
    7
 10
614.67449182208361
 20
279.47100431091587
 11
615.56619182208362
 21
278.69260431091573
  0
LINE
  8
_0-0_本体
  6
CONTINUOUS
 62
    7
 10
615.56619182208362
 20
278.69260431091573
 11
614.67449182208361
 21
284.31060431091589
  0
LINE
  8
_0-0_本体
  6
CONTINUOUS
 62
    7
 10
614.67449182208361
 20
284.31060431091589
 11
613.78269182208351
 21
283.53220431091574
  0
LINE
  8
_0-0_本体
  6
CONTINUOUS
 62
    7
 10
612.89099182208361
 20
284.31060431091589
 11
613.78269182208351
 21
278.69260431091573
  0
LINE
  8
_0-0_本体
  6
CONTINUOUS
 62
    7
 10
613.78269182208351
 20
278.69260431091573
 11
614.67449182208361
 21
279.47100431091587
  0
LINE
  8
_0-0_本体
  6
CONTINUOUS
 62
    7
 10
614.67449182208361
 20
279.47100431091587
 11
613.78269182208351
 21
283.53220431091574
  0
LINE
  8
_0-0_本体
  6
CONTINUOUS
 62
    7
 10
613.78269182208351
 20
283.53220431091574
 11
612.89099182208361
 21
284.31060431091589
  0
LINE
  8
_0-0_本体
  6
CONTINUOUS
 62
    7
 10
611.99929182208371
 20
283.53220431091574
 11
612.89099182208361
 21
279.47100431091587
  0
LINE
  8
_0-0_本体
  6
CONTINUOUS
 62
    7
 10
612.89099182208361
 20
279.47100431091587
 11
613.78269182208351
 21
278.69260431091573
  0
LINE
  8
_0-0_本体
  6
CONTINUOUS
 62
    7
 10
613.78269182208351
 20
278.69260431091573
 11
612.89099182208361
 21
284.31060431091589
  0
LINE
  8
_0-0_本体
  6
CONTINUOUS
 62
    7
 10
612.89099182208361
 20
284.31060431091589
 11
611.99929182208371
 21
283.53220431091574
  0
LINE
  8
_0-0_本体
  6
CONTINUOUS
 62
    7
 10
611.1074918220836
 20
284.31060431091589
 11
611.99929182208371
 21
278.69260431091573
  0
LINE
  8
_0-0_本体
  6
CONTINUOUS
 62
    7
 10
611.99929182208371
 20
278.69260431091573
 11
612.89099182208361
 21
279.47100431091587
  0
LINE
  8
_0-0_本体
  6
CONTINUOUS
 62
    7
 10
612.89099182208361
 20
279.47100431091587
 11
611.99929182208371
 21
283.53220431091574
  0
LINE
  8
_0-0_本体
  6
CONTINUOUS
 62
    7
 10
611.99929182208371
 20
283.53220431091574
 11
611.1074918220836
 21
284.31060431091589
  0
LINE
  8
_0-0_本体
  6
CONTINUOUS
 62
    7
 10
610.21579182208359
 20
283.53220431091574
 11
611.1074918220836
 21
279.47100431091587
  0
LINE
  8
_0-0_本体
  6
CONTINUOUS
 62
    7
 10
611.1074918220836
 20
279.47100431091587
 11
611.99929182208371
 21
278.69260431091573
  0
LINE
  8
_0-0_本体
  6
CONTINUOUS
 62
    7
 10
611.99929182208371
 20
278.69260431091573
 11
611.1074918220836
 21
284.31060431091589
  0
LINE
  8
_0-0_本体
  6
CONTINUOUS
 62
    7
 10
611.1074918220836
 20
284.31060431091589
 11
610.21579182208359
 21
283.53220431091574
  0
LINE
  8
_0-0_本体
  6
CONTINUOUS
 62
    7
 10
609.32419182208366
 20
284.31060431091589
 11
610.21579182208359
 21
278.69260431091573
  0
LINE
  8
_0-0_本体
  6
CONTINUOUS
 62
    7
 10
610.21579182208359
 20
278.69260431091573
 11
611.1074918220836
 21
279.47100431091587
  0
LINE
  8
_0-0_本体
  6
CONTINUOUS
 62
    7
 10
611.1074918220836
 20
279.47100431091587
 11
610.21579182208359
 21
283.53220431091574
  0
LINE
  8
_0-0_本体
  6
CONTINUOUS
 62
    7
 10
610.21579182208359
 20
283.53220431091574
 11
609.32419182208366
 21
284.31060431091589
  0
LINE
  8
_0-0_本体
  6
CONTINUOUS
 62
    7
 10
608.43239182208356
 20
283.53220431091574
 11
609.32419182208366
 21
279.47100431091587
  0
LINE
  8
_0-0_本体
  6
CONTINUOUS
 62
    7
 10
609.32419182208366
 20
279.47100431091587
 11
610.21579182208359
 21
278.69260431091573
  0
LINE
  8
_0-0_本体
  6
CONTINUOUS
 62
    7
 10
610.21579182208359
 20
278.69260431091573
 11
609.32419182208366
 21
284.31060431091589
  0
LINE
  8
_0-0_本体
  6
CONTINUOUS
 62
    7
 10
609.32419182208366
 20
284.31060431091589
 11
608.43239182208356
 21
283.53220431091574
  0
LINE
  8
_0-0_本体
  6
CONTINUOUS
 62
    7
 10
607.54069182208355
 20
284.31060431091589
 11
608.43239182208356
 21
278.69260431091573
  0
LINE
  8
_0-0_本体
  6
CONTINUOUS
 62
    7
 10
608.43239182208356
 20
278.69260431091573
 11
609.32419182208366
 21
279.47100431091587
  0
LINE
  8
_0-0_本体
  6
CONTINUOUS
 62
    7
 10
609.32419182208366
 20
279.47100431091587
 11
608.43239182208356
 21
283.53220431091574
  0
LINE
  8
_0-0_本体
  6
CONTINUOUS
 62
    7
 10
608.43239182208356
 20
283.53220431091574
 11
607.54069182208355
 21
284.31060431091589
  0
LINE
  8
_0-0_本体
  6
CONTINUOUS
 62
    7
 10
606.64899182208353
 20
283.53220431091574
 11
607.54069182208355
 21
279.47100431091587
  0
LINE
  8
_0-0_本体
  6
CONTINUOUS
 62
    7
 10
607.54069182208355
 20
279.47100431091587
 11
608.43239182208356
 21
278.69260431091573
  0
LINE
  8
_0-0_本体
  6
CONTINUOUS
 62
    7
 10
608.43239182208356
 20
278.69260431091573
 11
607.54069182208355
 21
284.31060431091589
  0
LINE
  8
_0-0_本体
  6
CONTINUOUS
 62
    7
 10
607.54069182208355
 20
284.31060431091589
 11
606.64899182208353
 21
283.53220431091574
  0
LINE
  8
_0-0_本体
  6
CONTINUOUS
 62
    7
 10
605.75719182208377
 20
284.31060431091589
 11
606.64899182208353
 21
278.69260431091573
  0
LINE
  8
_0-0_本体
  6
CONTINUOUS
 62
    7
 10
606.64899182208353
 20
278.69260431091573
 11
607.54069182208355
 21
279.47100431091587
  0
LINE
  8
_0-0_本体
  6
CONTINUOUS
 62
    7
 10
607.54069182208355
 20
279.47100431091587
 11
606.64899182208353
 21
283.53220431091574
  0
LINE
  8
_0-0_本体
  6
CONTINUOUS
 62
    7
 10
606.64899182208353
 20
283.53220431091574
 11
605.75719182208377
 21
284.31060431091589
  0
LINE
  8
_0-0_本体
  6
CONTINUOUS
 62
    7
 10
604.86549182208364
 20
283.53220431091574
 11
605.75719182208377
 21
279.47100431091587
  0
LINE
  8
_0-0_本体
  6
CONTINUOUS
 62
    7
 10
605.75719182208377
 20
279.47100431091587
 11
606.64899182208353
 21
278.69260431091573
  0
LINE
  8
_0-0_本体
  6
CONTINUOUS
 62
    7
 10
606.64899182208353
 20
278.69260431091573
 11
605.75719182208377
 21
284.31060431091589
  0
LINE
  8
_0-0_本体
  6
CONTINUOUS
 62
    7
 10
605.75719182208377
 20
284.31060431091589
 11
604.86549182208364
 21
283.53220431091574
  0
LINE
  8
_0-0_本体
  6
CONTINUOUS
 62
    7
 10
603.97379182208351
 20
284.31060431091589
 11
604.86549182208364
 21
278.69260431091573
  0
LINE
  8
_0-0_本体
  6
CONTINUOUS
 62
    7
 10
604.86549182208364
 20
278.69260431091573
 11
605.75719182208377
 21
279.47100431091587
  0
LINE
  8
_0-0_本体
  6
CONTINUOUS
 62
    7
 10
605.75719182208377
 20
279.47100431091587
 11
604.86549182208364
 21
283.53220431091574
  0
LINE
  8
_0-0_本体
  6
CONTINUOUS
 62
    7
 10
604.86549182208364
 20
283.53220431091574
 11
603.97379182208351
 21
284.31060431091589
  0
LINE
  8
_0-0_本体
  6
CONTINUOUS
 62
    7
 10
603.08199182208364
 20
283.53220431091574
 11
603.97379182208351
 21
279.47100431091587
  0
LINE
  8
_0-0_本体
  6
CONTINUOUS
 62
    7
 10
603.97379182208351
 20
279.47100431091587
 11
604.86549182208364
 21
278.69260431091573
  0
LINE
  8
_0-0_本体
  6
CONTINUOUS
 62
    7
 10
604.86549182208364
 20
278.69260431091573
 11
603.97379182208351
 21
284.31060431091589
  0
LINE
  8
_0-0_本体
  6
CONTINUOUS
 62
    7
 10
603.97379182208351
 20
284.31060431091589
 11
603.08199182208364
 21
283.53220431091574
  0
LINE
  8
_0-0_本体
  6
CONTINUOUS
 62
    7
 10
602.19039182208371
 20
284.31060431091589
 11
603.08199182208364
 21
278.69260431091573
  0
LINE
  8
_0-0_本体
  6
CONTINUOUS
 62
    7
 10
603.08199182208364
 20
278.69260431091573
 11
603.97379182208351
 21
279.47100431091587
  0
LINE
  8
_0-0_本体
  6
CONTINUOUS
 62
    7
 10
603.97379182208351
 20
279.47100431091587
 11
603.08199182208364
 21
283.53220431091574
  0
LINE
  8
_0-0_本体
  6
CONTINUOUS
 62
    7
 10
603.08199182208364
 20
283.53220431091574
 11
602.19039182208371
 21
284.31060431091589
  0
LINE
  8
_0-0_本体
  6
CONTINUOUS
 62
    7
 10
601.29859182208361
 20
283.53220431091574
 11
602.19039182208371
 21
279.47100431091587
  0
LINE
  8
_0-0_本体
  6
CONTINUOUS
 62
    7
 10
602.19039182208371
 20
279.47100431091587
 11
603.08199182208364
 21
278.69260431091573
  0
LINE
  8
_0-0_本体
  6
CONTINUOUS
 62
    7
 10
603.08199182208364
 20
278.69260431091573
 11
602.19039182208371
 21
284.31060431091589
  0
LINE
  8
_0-0_本体
  6
CONTINUOUS
 62
    7
 10
602.19039182208371
 20
284.31060431091589
 11
601.29859182208361
 21
283.53220431091574
  0
LINE
  8
_0-0_本体
  6
CONTINUOUS
 62
    7
 10
600.40689182208359
 20
284.31060431091589
 11
601.29859182208361
 21
278.69260431091573
  0
LINE
  8
_0-0_本体
  6
CONTINUOUS
 62
    7
 10
601.29859182208361
 20
278.69260431091573
 11
602.19039182208371
 21
279.47100431091587
  0
LINE
  8
_0-0_本体
  6
CONTINUOUS
 62
    7
 10
602.19039182208371
 20
279.47100431091587
 11
601.29859182208361
 21
283.53220431091574
  0
LINE
  8
_0-0_本体
  6
CONTINUOUS
 62
    7
 10
601.29859182208361
 20
283.53220431091574
 11
600.40689182208359
 21
284.31060431091589
  0
LINE
  8
_0-0_本体
  6
CONTINUOUS
 62
    7
 10
599.51519182208358
 20
283.53220431091574
 11
600.40689182208359
 21
279.47100431091587
  0
LINE
  8
_0-0_本体
  6
CONTINUOUS
 62
    7
 10
600.40689182208359
 20
279.47100431091587
 11
601.29859182208361
 21
278.69260431091573
  0
LINE
  8
_0-0_本体
  6
CONTINUOUS
 62
    7
 10
601.29859182208361
 20
278.69260431091573
 11
600.40689182208359
 21
284.31060431091589
  0
LINE
  8
_0-0_本体
  6
CONTINUOUS
 62
    7
 10
600.40689182208359
 20
284.31060431091589
 11
599.51519182208358
 21
283.53220431091574
  0
LINE
  8
_0-0_本体
  6
CONTINUOUS
 62
    7
 10
598.62339182208359
 20
284.31060431091589
 11
599.51519182208358
 21
278.69260431091573
  0
LINE
  8
_0-0_本体
  6
CONTINUOUS
 62
    7
 10
599.51519182208358
 20
278.69260431091573
 11
600.40689182208359
 21
279.47100431091587
  0
LINE
  8
_0-0_本体
  6
CONTINUOUS
 62
    7
 10
600.40689182208359
 20
279.47100431091587
 11
599.51519182208358
 21
283.53220431091574
  0
LINE
  8
_0-0_本体
  6
CONTINUOUS
 62
    7
 10
599.51519182208358
 20
283.53220431091574
 11
598.62339182208359
 21
284.31060431091589
  0
LINE
  8
_0-0_本体
  6
CONTINUOUS
 62
    7
 10
597.73169182208358
 20
283.53220431091574
 11
598.62339182208359
 21
279.47100431091587
  0
LINE
  8
_0-0_本体
  6
CONTINUOUS
 62
    7
 10
598.62339182208359
 20
279.47100431091587
 11
599.51519182208358
 21
278.69260431091573
  0
LINE
  8
_0-0_本体
  6
CONTINUOUS
 62
    7
 10
599.51519182208358
 20
278.69260431091573
 11
598.62339182208359
 21
284.31060431091589
  0
LINE
  8
_0-0_本体
  6
CONTINUOUS
 62
    7
 10
598.62339182208359
 20
284.31060431091589
 11
597.73169182208358
 21
283.53220431091574
  0
LINE
  8
_0-0_本体
  6
CONTINUOUS
 62
    7
 10
596.83999182208345
 20
284.31060431091589
 11
597.73169182208358
 21
278.69260431091573
  0
LINE
  8
_0-0_本体
  6
CONTINUOUS
 62
    7
 10
597.73169182208358
 20
278.69260431091573
 11
598.62339182208359
 21
279.47100431091587
  0
LINE
  8
_0-0_本体
  6
CONTINUOUS
 62
    7
 10
598.62339182208359
 20
279.47100431091587
 11
597.73169182208358
 21
283.53220431091574
  0
LINE
  8
_0-0_本体
  6
CONTINUOUS
 62
    7
 10
597.73169182208358
 20
283.53220431091574
 11
596.83999182208345
 21
284.31060431091589
  0
LINE
  8
_0-0_本体
  6
CONTINUOUS
 62
    7
 10
595.94819182208369
 20
283.53220431091574
 11
596.83999182208345
 21
279.47100431091587
  0
LINE
  8
_0-0_本体
  6
CONTINUOUS
 62
    7
 10
596.83999182208345
 20
279.47100431091587
 11
597.73169182208358
 21
278.69260431091573
  0
LINE
  8
_0-0_本体
  6
CONTINUOUS
 62
    7
 10
597.73169182208358
 20
278.69260431091573
 11
596.83999182208345
 21
284.31060431091589
  0
LINE
  8
_0-0_本体
  6
CONTINUOUS
 62
    7
 10
596.83999182208345
 20
284.31060431091589
 11
595.94819182208369
 21
283.53220431091574
  0
LINE
  8
_0-0_本体
  6
CONTINUOUS
 62
    7
 10
595.05659182208365
 20
284.31060431091589
 11
595.94819182208369
 21
278.69260431091573
  0
LINE
  8
_0-0_本体
  6
CONTINUOUS
 62
    7
 10
595.94819182208369
 20
278.69260431091573
 11
596.83999182208345
 21
279.47100431091587
  0
LINE
  8
_0-0_本体
  6
CONTINUOUS
 62
    7
 10
596.83999182208345
 20
279.47100431091587
 11
595.94819182208369
 21
283.53220431091574
  0
LINE
  8
_0-0_本体
  6
CONTINUOUS
 62
    7
 10
595.94819182208369
 20
283.53220431091574
 11
595.05659182208365
 21
284.31060431091589
  0
LINE
  8
_0-0_本体
  6
CONTINUOUS
 62
    7
 10
594.16489182208375
 20
283.53220431091574
 11
595.05659182208365
 21
279.47100431091587
  0
LINE
  8
_0-0_本体
  6
CONTINUOUS
 62
    7
 10
595.05659182208365
 20
279.47100431091587
 11
595.94819182208369
 21
278.69260431091573
  0
LINE
  8
_0-0_本体
  6
CONTINUOUS
 62
    7
 10
595.94819182208369
 20
278.69260431091573
 11
595.05659182208365
 21
284.31060431091589
  0
LINE
  8
_0-0_本体
  6
CONTINUOUS
 62
    7
 10
595.05659182208365
 20
284.31060431091589
 11
594.16489182208375
 21
283.53220431091574
  0
LINE
  8
_0-0_本体
  6
CONTINUOUS
 62
    7
 10
593.27309182208364
 20
284.31060431091589
 11
594.16489182208375
 21
278.69260431091573
  0
LINE
  8
_0-0_本体
  6
CONTINUOUS
 62
    7
 10
594.16489182208375
 20
278.69260431091573
 11
595.05659182208365
 21
279.47100431091587
  0
LINE
  8
_0-0_本体
  6
CONTINUOUS
 62
    7
 10
595.05659182208365
 20
279.47100431091587
 11
594.16489182208375
 21
283.53220431091574
  0
LINE
  8
_0-0_本体
  6
CONTINUOUS
 62
    7
 10
594.16489182208375
 20
283.53220431091574
 11
593.27309182208364
 21
284.31060431091589
  0
LINE
  8
_0-0_本体
  6
CONTINUOUS
 62
    7
 10
592.38139182208363
 20
283.53220431091574
 11
593.27309182208364
 21
279.47100431091587
  0
LINE
  8
_0-0_本体
  6
CONTINUOUS
 62
    7
 10
593.27309182208364
 20
279.47100431091587
 11
594.16489182208375
 21
278.69260431091573
  0
LINE
  8
_0-0_本体
  6
CONTINUOUS
 62
    7
 10
594.16489182208375
 20
278.69260431091573
 11
593.27309182208364
 21
284.31060431091589
  0
LINE
  8
_0-0_本体
  6
CONTINUOUS
 62
    7
 10
593.27309182208364
 20
284.31060431091589
 11
592.38139182208363
 21
283.53220431091574
  0
LINE
  8
_0-0_本体
  6
CONTINUOUS
 62
    7
 10
591.48969182208361
 20
284.31060431091589
 11
592.38139182208363
 21
278.69260431091573
  0
LINE
  8
_0-0_本体
  6
CONTINUOUS
 62
    7
 10
592.38139182208363
 20
278.69260431091573
 11
593.27309182208364
 21
279.47100431091587
  0
LINE
  8
_0-0_本体
  6
CONTINUOUS
 62
    7
 10
593.27309182208364
 20
279.47100431091587
 11
592.38139182208363
 21
283.53220431091574
  0
LINE
  8
_0-0_本体
  6
CONTINUOUS
 62
    7
 10
592.38139182208363
 20
283.53220431091574
 11
591.48969182208361
 21
284.31060431091589
  0
LINE
  8
_0-0_本体
  6
CONTINUOUS
 62
    7
 10
590.59789182208351
 20
283.53220431091574
 11
591.48969182208361
 21
279.47100431091587
  0
LINE
  8
_0-0_本体
  6
CONTINUOUS
 62
    7
 10
591.48969182208361
 20
279.47100431091587
 11
592.38139182208363
 21
278.69260431091573
  0
LINE
  8
_0-0_本体
  6
CONTINUOUS
 62
    7
 10
592.38139182208363
 20
278.69260431091573
 11
591.48969182208361
 21
284.31060431091589
  0
LINE
  8
_0-0_本体
  6
CONTINUOUS
 62
    7
 10
591.48969182208361
 20
284.31060431091589
 11
590.59789182208351
 21
283.53220431091574
  0
LINE
  8
_0-0_本体
  6
CONTINUOUS
 62
    7
 10
589.70619182208384
 20
284.31060431091589
 11
590.59789182208351
 21
278.69260431091573
  0
LINE
  8
_0-0_本体
  6
CONTINUOUS
 62
    7
 10
590.59789182208351
 20
278.69260431091573
 11
591.48969182208361
 21
279.47100431091587
  0
LINE
  8
_0-0_本体
  6
CONTINUOUS
 62
    7
 10
591.48969182208361
 20
279.47100431091587
 11
590.59789182208351
 21
283.53220431091574
  0
LINE
  8
_0-0_本体
  6
CONTINUOUS
 62
    7
 10
590.59789182208351
 20
283.53220431091574
 11
589.70619182208384
 21
284.31060431091589
  0
LINE
  8
_0-0_本体
  6
CONTINUOUS
 62
    7
 10
589.70619182208384
 20
284.31060431091589
 11
587.20109182208364
 21
284.31060431091589
  0
ARC
  8
_0-0_本体
  6
CONTINUOUS
 62
    7
 10
587.20109182208364
 20
284.48060431091585
 40
0.1700000000000514
 50
180.00000000001197
 51
269.99999999998801
  0
LINE
  8
_0-0_本体
  6
CONTINUOUS
 62
    7
 10
587.03109182208368
 20
278.5016043109157
 11
587.03109182208368
 21
284.5016043109157
  0
ARC
  8
_0-0_本体
  6
CONTINUOUS
 62
    7
 10
587.20109182208364
 20
278.52260431091577
 40
0.1699999999999768
 50
89.999999999986812
 51
180.000000000006
  0
LINE
  8
_0-0_本体
  6
CONTINUOUS
 62
    7
 10
587.20109182208364
 20
278.69260431091573
 11
588.81449182208371
 21
278.69260431091573
  0
LINE
  8
_0-0_本体
  6
CONTINUOUS
 62
    7
 10
588.81449182208371
 20
278.69260431091573
 11
589.70619182208384
 21
279.47100431091587
  0
LINE
  8
_0-0_本体
  6
CONTINUOUS
 62
    7
 10
589.70619182208384
 20
279.47100431091587
 11
590.59789182208351
 21
278.69260431091573
  0
LINE
  8
_0-0_本体
  6
CONTINUOUS
 62
    7
 10
590.59789182208351
 20
278.69260431091573
 11
589.70619182208384
 21
284.31060431091589
  0
LINE
  8
_0-0_本体
  6
CONTINUOUS
 62
    7
 10
587.03109182208368
 20
278.69260431091573
 11
582.79909182208371
 21
273.63040431091588
  0
LINE
  8
_0-0_本体
  6
CONTINUOUS
 62
    7
 10
587.03109182208368
 20
284.31060431091589
 11
582.79909182208371
 21
289.37280431091574
  0
LINE
  8
_0-0_本体
  6
CONTINUOUS
 62
    7
 10
582.79909182208371
 20
289.37280431091574
 11
582.79909182208371
 21
273.63040431091588
  0
LINE
  8
_0-0_本体
  6
CONTINUOUS
 62
    7
 10
624.48349182208358
 20
283.53220431091574
 11
623.59169182208359
 21
284.31060431091589
  0
LINE
  8
_0-0_本体
  6
CONTINUOUS
 62
    7
 10
625.37519182208359
 20
279.47100431091587
 11
624.48349182208358
 21
283.53220431091574
  0
LINE
  8
_0-0_本体
  6
CONTINUOUS
 62
    7
 10
624.48349182208358
 20
278.69260431091573
 11
625.37519182208359
 21
279.47100431091587
  0
LINE
  8
_0-0_本体
  6
CONTINUOUS
 62
    7
 10
623.59169182208359
 20
284.31060431091589
 11
624.48349182208358
 21
278.69260431091573
  0
LINE
  8
_0-0_本体
  6
CONTINUOUS
 62
    7
 10
625.37519182208359
 20
284.31060431091589
 11
624.48349182208358
 21
283.53220431091574
  0
LINE
  8
_0-0_本体
  6
CONTINUOUS
 62
    7
 10
626.26689182208361
 20
278.69260431091573
 11
625.37519182208359
 21
284.31060431091589
  0
LINE
  8
_0-0_本体
  6
CONTINUOUS
 62
    7
 10
625.37519182208359
 20
279.47100431091587
 11
626.26689182208361
 21
278.69260431091573
  0
LINE
  8
_0-0_本体
  6
CONTINUOUS
 62
    7
 10
624.48349182208358
 20
283.53220431091574
 11
625.37519182208359
 21
279.47100431091587
  0
LINE
  8
_0-0_本体
  6
CONTINUOUS
 62
    7
 10
626.26699182208347
 20
283.53220431091574
 11
625.37519182208359
 21
284.31060431091589
  0
LINE
  8
_0-0_本体
  6
CONTINUOUS
 62
    7
 10
627.15869182208371
 20
279.47100431091587
 11
626.26699182208347
 21
283.53220431091574
  0
LINE
  8
_0-0_本体
  6
CONTINUOUS
 62
    7
 10
626.26699182208347
 20
278.69260431091573
 11
627.15869182208371
 21
279.47100431091587
  0
LINE
  8
_0-0_本体
  6
CONTINUOUS
 62
    7
 10
625.37519182208359
 20
284.31060431091589
 11
626.26699182208347
 21
278.69260431091573
  0
LINE
  8
_0-0_本体
  6
CONTINUOUS
 62
    7
 10
627.15869182208371
 20
284.31060431091589
 11
626.26699182208347
 21
283.53220431091574
  0
LINE
  8
_0-0_本体
  6
CONTINUOUS
 62
    7
 10
628.05039182208372
 20
278.69260431091573
 11
627.15869182208371
 21
284.31060431091589
  0
LINE
  8
_0-0_本体
  6
CONTINUOUS
 62
    7
 10
627.15869182208371
 20
279.47100431091587
 11
628.05039182208372
 21
278.69260431091573
  0
LINE
  8
_0-0_本体
  6
CONTINUOUS
 62
    7
 10
626.26699182208347
 20
283.53220431091574
 11
627.15869182208371
 21
279.47100431091587
  0
LINE
  8
_0-0_本体
  6
CONTINUOUS
 62
    7
 10
638.75119182208357
 20
283.53220431091574
 11
639.6428918220837
 21
279.47100431091587
  0
LINE
  8
_0-0_本体
  6
CONTINUOUS
 62
    7
 10
639.6428918220837
 20
279.47100431091587
 11
640.53459182208371
 21
278.69260431091573
  0
LINE
  8
_0-0_本体
  6
CONTINUOUS
 62
    7
 10
640.53459182208371
 20
278.69260431091573
 11
639.6428918220837
 21
284.31060431091589
  0
LINE
  8
_0-0_本体
  6
CONTINUOUS
 62
    7
 10
639.6428918220837
 20
284.31060431091589
 11
638.75119182208357
 21
283.53220431091574
  0
LINE
  8
_0-0_本体
  6
CONTINUOUS
 62
    7
 10
637.85939182208381
 20
284.31060431091589
 11
638.75119182208357
 21
278.69260431091573
  0
LINE
  8
_0-0_本体
  6
CONTINUOUS
 62
    7
 10
638.75119182208357
 20
278.69260431091573
 11
639.6428918220837
 21
279.47100431091587
  0
LINE
  8
_0-0_本体
  6
CONTINUOUS
 62
    7
 10
639.6428918220837
 20
279.47100431091587
 11
638.75119182208357
 21
283.53220431091574
  0
LINE
  8
_0-0_本体
  6
CONTINUOUS
 62
    7
 10
638.75119182208357
 20
283.53220431091574
 11
637.85939182208381
 21
284.31060431091589
  0
LINE
  8
_0-0_本体
  6
CONTINUOUS
 62
    7
 10
636.96769182208368
 20
283.53220431091574
 11
637.85939182208381
 21
279.47100431091587
  0
LINE
  8
_0-0_本体
  6
CONTINUOUS
 62
    7
 10
637.85939182208381
 20
279.47100431091587
 11
638.75119182208357
 21
278.69260431091573
  0
LINE
  8
_0-0_本体
  6
CONTINUOUS
 62
    7
 10
638.75119182208357
 20
278.69260431091573
 11
637.85939182208381
 21
284.31060431091589
  0
LINE
  8
_0-0_本体
  6
CONTINUOUS
 62
    7
 10
637.85939182208381
 20
284.31060431091589
 11
636.96769182208368
 21
283.53220431091574
  0
LINE
  8
_0-0_本体
  6
CONTINUOUS
 62
    7
 10
636.07599182208355
 20
284.31060431091589
 11
636.96769182208368
 21
278.69260431091573
  0
LINE
  8
_0-0_本体
  6
CONTINUOUS
 62
    7
 10
636.96769182208368
 20
278.69260431091573
 11
637.85939182208381
 21
279.47100431091587
  0
LINE
  8
_0-0_本体
  6
CONTINUOUS
 62
    7
 10
637.85939182208381
 20
279.47100431091587
 11
636.96769182208368
 21
283.53220431091574
  0
LINE
  8
_0-0_本体
  6
CONTINUOUS
 62
    7
 10
636.96769182208368
 20
283.53220431091574
 11
636.07599182208355
 21
284.31060431091589
  0
LINE
  8
_0-0_本体
  6
CONTINUOUS
 62
    7
 10
635.18419182208368
 20
283.53220431091574
 11
636.07599182208355
 21
279.47100431091587
  0
LINE
  8
_0-0_本体
  6
CONTINUOUS
 62
    7
 10
636.07599182208355
 20
279.47100431091587
 11
636.96769182208368
 21
278.69260431091573
  0
LINE
  8
_0-0_本体
  6
CONTINUOUS
 62
    7
 10
636.96769182208368
 20
278.69260431091573
 11
636.07599182208355
 21
284.31060431091589
  0
LINE
  8
_0-0_本体
  6
CONTINUOUS
 62
    7
 10
636.07599182208355
 20
284.31060431091589
 11
635.18419182208368
 21
283.53220431091574
  0
LINE
  8
_0-0_本体
  6
CONTINUOUS
 62
    7
 10
634.29249182208366
 20
284.31060431091589
 11
635.18419182208368
 21
278.69260431091573
  0
LINE
  8
_0-0_本体
  6
CONTINUOUS
 62
    7
 10
635.18419182208368
 20
278.69260431091573
 11
636.07599182208355
 21
279.47100431091587
  0
LINE
  8
_0-0_本体
  6
CONTINUOUS
 62
    7
 10
636.07599182208355
 20
279.47100431091587
 11
635.18419182208368
 21
283.53220431091574
  0
LINE
  8
_0-0_本体
  6
CONTINUOUS
 62
    7
 10
635.18419182208368
 20
283.53220431091574
 11
634.29249182208366
 21
284.31060431091589
  0
LINE
  8
_0-0_本体
  6
CONTINUOUS
 62
    7
 10
633.40089182208351
 20
283.53220431091574
 11
634.29249182208366
 21
279.47100431091587
  0
LINE
  8
_0-0_本体
  6
CONTINUOUS
 62
    7
 10
634.29249182208366
 20
279.47100431091587
 11
635.18419182208368
 21
278.69260431091573
  0
LINE
  8
_0-0_本体
  6
CONTINUOUS
 62
    7
 10
635.18419182208368
 20
278.69260431091573
 11
634.29249182208366
 21
284.31060431091589
  0
LINE
  8
_0-0_本体
  6
CONTINUOUS
 62
    7
 10
634.29249182208366
 20
284.31060431091589
 11
633.40089182208351
 21
283.53220431091574
  0
LINE
  8
_0-0_本体
  6
CONTINUOUS
 62
    7
 10
632.50909182208375
 20
284.31060431091589
 11
633.40089182208351
 21
278.69260431091573
  0
LINE
  8
_0-0_本体
  6
CONTINUOUS
 62
    7
 10
633.40089182208351
 20
278.69260431091573
 11
634.29249182208366
 21
279.47100431091587
  0
LINE
  8
_0-0_本体
  6
CONTINUOUS
 62
    7
 10
634.29249182208366
 20
279.47100431091587
 11
633.40089182208351
 21
283.53220431091574
  0
LINE
  8
_0-0_本体
  6
CONTINUOUS
 62
    7
 10
633.40089182208351
 20
283.53220431091574
 11
632.50909182208375
 21
284.31060431091589
  0
LINE
  8
_0-0_本体
  6
CONTINUOUS
 62
    7
 10
631.61739182208373
 20
283.53220431091574
 11
632.50909182208375
 21
279.47100431091587
  0
LINE
  8
_0-0_本体
  6
CONTINUOUS
 62
    7
 10
632.50909182208375
 20
279.47100431091587
 11
633.40089182208351
 21
278.69260431091573
  0
LINE
  8
_0-0_本体
  6
CONTINUOUS
 62
    7
 10
633.40089182208351
 20
278.69260431091573
 11
632.50909182208375
 21
284.31060431091589
  0
LINE
  8
_0-0_本体
  6
CONTINUOUS
 62
    7
 10
632.50909182208375
 20
284.31060431091589
 11
631.61739182208373
 21
283.53220431091574
  0
LINE
  8
_0-0_本体
  6
CONTINUOUS
 62
    7
 10
630.72569182208372
 20
284.31060431091589
 11
631.61739182208373
 21
278.69260431091573
  0
LINE
  8
_0-0_本体
  6
CONTINUOUS
 62
    7
 10
631.61739182208373
 20
278.69260431091573
 11
632.50909182208375
 21
279.47100431091587
  0
LINE
  8
_0-0_本体
  6
CONTINUOUS
 62
    7
 10
632.50909182208375
 20
279.47100431091587
 11
631.61739182208373
 21
283.53220431091574
  0
LINE
  8
_0-0_本体
  6
CONTINUOUS
 62
    7
 10
631.61739182208373
 20
283.53220431091574
 11
630.72569182208372
 21
284.31060431091589
  0
LINE
  8
_0-0_本体
  6
CONTINUOUS
 62
    7
 10
629.83389182208361
 20
283.53220431091574
 11
630.72569182208372
 21
279.47100431091587
  0
LINE
  8
_0-0_本体
  6
CONTINUOUS
 62
    7
 10
630.72569182208372
 20
279.47100431091587
 11
631.61739182208373
 21
278.69260431091573
  0
LINE
  8
_0-0_本体
  6
CONTINUOUS
 62
    7
 10
631.61739182208373
 20
278.69260431091573
 11
630.72569182208372
 21
284.31060431091589
  0
LINE
  8
_0-0_本体
  6
CONTINUOUS
 62
    7
 10
630.72569182208372
 20
284.31060431091589
 11
629.83389182208361
 21
283.53220431091574
  0
LINE
  8
_0-0_本体
  6
CONTINUOUS
 62
    7
 10
628.9421918220836
 20
284.31060431091589
 11
629.83389182208361
 21
278.69260431091573
  0
LINE
  8
_0-0_本体
  6
CONTINUOUS
 62
    7
 10
629.83389182208361
 20
278.69260431091573
 11
630.72569182208372
 21
279.47100431091587
  0
LINE
  8
_0-0_本体
  6
CONTINUOUS
 62
    7
 10
630.72569182208372
 20
279.47100431091587
 11
629.83389182208361
 21
283.53220431091574
  0
LINE
  8
_0-0_本体
  6
CONTINUOUS
 62
    7
 10
629.83389182208361
 20
283.53220431091574
 11
628.9421918220836
 21
284.31060431091589
  0
LINE
  8
_0-0_本体
  6
CONTINUOUS
 62
    7
 10
628.05049182208381
 20
283.53220431091574
 11
628.9421918220836
 21
279.47100431091587
  0
LINE
  8
_0-0_本体
  6
CONTINUOUS
 62
    7
 10
628.9421918220836
 20
279.47100431091587
 11
629.83389182208361
 21
278.69260431091573
  0
LINE
  8
_0-0_本体
  6
CONTINUOUS
 62
    7
 10
629.83389182208361
 20
278.69260431091573
 11
628.9421918220836
 21
284.31060431091589
  0
LINE
  8
_0-0_本体
  6
CONTINUOUS
 62
    7
 10
628.9421918220836
 20
284.31060431091589
 11
628.05049182208381
 21
283.53220431091574
  0
LINE
  8
_0-0_本体
  6
CONTINUOUS
 62
    7
 10
640.53469182208346
 20
283.53220431091574
 11
639.6428918220837
 21
284.31060431091589
  0
LINE
  8
_0-0_本体
  6
CONTINUOUS
 62
    7
 10
641.4263918220837
 20
279.47100431091587
 11
640.53469182208346
 21
283.53220431091574
  0
LINE
  8
_0-0_本体
  6
CONTINUOUS
 62
    7
 10
640.53469182208346
 20
278.69260431091573
 11
641.4263918220837
 21
279.47100431091587
  0
LINE
  8
_0-0_本体
  6
CONTINUOUS
 62
    7
 10
639.6428918220837
 20
284.31060431091589
 11
640.53469182208346
 21
278.69260431091573
  0
LINE
  8
_0-0_本体
  6
CONTINUOUS
 62
    7
 10
641.4263918220837
 20
284.31060431091589
 11
640.53469182208346
 21
283.53220431091574
  0
LINE
  8
_0-0_本体
  6
CONTINUOUS
 62
    7
 10
642.31809182208372
 20
278.69260431091573
 11
641.4263918220837
 21
284.31060431091589
  0
LINE
  8
_0-0_本体
  6
CONTINUOUS
 62
    7
 10
641.4263918220837
 20
279.47100431091587
 11
642.31809182208372
 21
278.69260431091573
  0
LINE
  8
_0-0_本体
  6
CONTINUOUS
 62
    7
 10
640.53469182208346
 20
283.53220431091574
 11
641.4263918220837
 21
279.47100431091587
  0
LINE
  8
_0-0_本体
  6
CONTINUOUS
 62
    7
 10
642.31819182208346
 20
283.53220431091574
 11
641.4263918220837
 21
284.31060431091589
  0
LINE
  8
_0-0_本体
  6
CONTINUOUS
 62
    7
 10
643.20989182208359
 20
279.47100431091587
 11
642.31819182208346
 21
283.53220431091574
  0
LINE
  8
_0-0_本体
  6
CONTINUOUS
 62
    7
 10
642.31819182208346
 20
278.69260431091573
 11
643.20989182208359
 21
279.47100431091587
  0
LINE
  8
_0-0_本体
  6
CONTINUOUS
 62
    7
 10
641.4263918220837
 20
284.31060431091589
 11
642.31819182208346
 21
278.69260431091573
  0
LINE
  8
_0-0_本体
  6
CONTINUOUS
 62
    7
 10
643.20989182208359
 20
284.31060431091589
 11
642.31819182208346
 21
283.53220431091574
  0
LINE
  8
_0-0_本体
  6
CONTINUOUS
 62
    7
 10
644.10159182208361
 20
278.69260431091573
 11
643.20989182208359
 21
284.31060431091589
  0
LINE
  8
_0-0_本体
  6
CONTINUOUS
 62
    7
 10
643.20989182208359
 20
279.47100431091587
 11
644.10159182208361
 21
278.69260431091573
  0
LINE
  8
_0-0_本体
  6
CONTINUOUS
 62
    7
 10
642.31819182208346
 20
283.53220431091574
 11
643.20989182208359
 21
279.47100431091587
  0
LINE
  8
_0-0_本体
  6
CONTINUOUS
 62
    7
 10
627.15869182208371
 20
284.31060431091589
 11
628.05049182208381
 21
278.69260431091573
  0
LINE
  8
_0-0_本体
  6
CONTINUOUS
 62
    7
 10
628.05049182208381
 20
278.69260431091573
 11
628.9421918220836
 21
279.47100431091587
  0
LINE
  8
_0-0_本体
  6
CONTINUOUS
 62
    7
 10
628.9421918220836
 20
279.47100431091587
 11
628.05049182208381
 21
283.53220431091574
  0
LINE
  8
_0-0_本体
  6
CONTINUOUS
 62
    7
 10
628.05049182208381
 20
283.53220431091574
 11
627.15869182208371
 21
284.31060431091589
  0
LINE
  8
_0-0_本体
  6
CONTINUOUS
 62
    7
 10
644.10169182208358
 20
283.53220431091574
 11
643.20989182208359
 21
284.31060431091589
  0
LINE
  8
_0-0_本体
  6
CONTINUOUS
 62
    7
 10
644.99339182208359
 20
279.47100431091587
 11
644.10169182208358
 21
283.53220431091574
  0
LINE
  8
_0-0_本体
  6
CONTINUOUS
 62
    7
 10
644.10169182208358
 20
278.69260431091573
 11
644.99339182208359
 21
279.47100431091587
  0
LINE
  8
_0-0_本体
  6
CONTINUOUS
 62
    7
 10
643.20989182208359
 20
284.31060431091589
 11
644.10169182208358
 21
278.69260431091573
  0
LINE
  8
_0-0_本体
  6
CONTINUOUS
 62
    7
 10
644.99339182208359
 20
284.31060431091589
 11
644.10169182208358
 21
283.53220431091574
  0
LINE
  8
_0-0_本体
  6
CONTINUOUS
 62
    7
 10
645.88509182208361
 20
278.69260431091573
 11
644.99339182208359
 21
284.31060431091589
  0
LINE
  8
_0-0_本体
  6
CONTINUOUS
 62
    7
 10
644.99339182208359
 20
279.47100431091587
 11
645.88509182208361
 21
278.69260431091573
  0
LINE
  8
_0-0_本体
  6
CONTINUOUS
 62
    7
 10
644.10169182208358
 20
283.53220431091574
 11
644.99339182208359
 21
279.47100431091587
  0
LINE
  8
_0-0_本体
  6
CONTINUOUS
 62
    7
 10
645.88519182208347
 20
283.53220431091574
 11
644.99339182208359
 21
284.31060431091589
  0
LINE
  8
_0-0_本体
  6
CONTINUOUS
 62
    7
 10
646.77689182208371
 20
279.47100431091587
 11
645.88519182208347
 21
283.53220431091574
  0
LINE
  8
_0-0_本体
  6
CONTINUOUS
 62
    7
 10
645.88519182208347
 20
278.69260431091573
 11
646.77689182208371
 21
279.47100431091587
  0
LINE
  8
_0-0_本体
  6
CONTINUOUS
 62
    7
 10
644.99339182208359
 20
284.31060431091589
 11
645.88519182208347
 21
278.69260431091573
  0
LINE
  8
_0-0_本体
  6
CONTINUOUS
 62
    7
 10
646.77689182208371
 20
284.31060431091589
 11
645.88519182208347
 21
283.53220431091574
  0
LINE
  8
_0-0_本体
  6
CONTINUOUS
 62
    7
 10
647.66859182208373
 20
278.69260431091573
 11
646.77689182208371
 21
284.31060431091589
  0
LINE
  8
_0-0_本体
  6
CONTINUOUS
 62
    7
 10
646.77689182208371
 20
279.47100431091587
 11
647.66859182208373
 21
278.69260431091573
  0
LINE
  8
_0-0_本体
  6
CONTINUOUS
 62
    7
 10
645.88519182208347
 20
283.53220431091574
 11
646.77689182208371
 21
279.47100431091587
  0
LINE
  8
_0-0_本体
  6
CONTINUOUS
 62
    7
 10
648.5603918220836
 20
284.31060431091589
 11
647.66869182208347
 21
283.53220431091574
  0
LINE
  8
_0-0_本体
  6
CONTINUOUS
 62
    7
 10
649.45209182208362
 20
278.69260431091573
 11
648.5603918220836
 21
284.31060431091589
  0
LINE
  8
_0-0_本体
  6
CONTINUOUS
 62
    7
 10
648.5603918220836
 20
279.47100431091587
 11
649.45209182208362
 21
278.69260431091573
  0
LINE
  8
_0-0_本体
  6
CONTINUOUS
 62
    7
 10
647.66869182208347
 20
283.53220431091574
 11
648.5603918220836
 21
279.47100431091587
  0
LINE
  8
_0-0_本体
  6
CONTINUOUS
 62
    7
 10
647.66869182208347
 20
283.53220431091574
 11
646.77689182208371
 21
284.31060431091589
  0
LINE
  8
_0-0_本体
  6
CONTINUOUS
 62
    7
 10
648.5603918220836
 20
279.47100431091587
 11
647.66869182208347
 21
283.53220431091574
  0
LINE
  8
_0-0_本体
  6
CONTINUOUS
 62
    7
 10
647.66869182208347
 20
278.69260431091573
 11
648.5603918220836
 21
279.47100431091587
  0
LINE
  8
_0-0_本体
  6
CONTINUOUS
 62
    7
 10
646.77689182208371
 20
284.31060431091589
 11
647.66869182208347
 21
278.69260431091573
  0
LINE
  8
_0-0_本体
  6
CONTINUOUS
 62
    7
 10
649.65729182208361
 20
283.71140431091578
 11
649.45209182208362
 21
283.53220431091574
  0
LINE
  8
_0-0_本体
  6
CONTINUOUS
 62
    7
 10
648.5603918220836
 20
284.31060431091589
 11
649.45209182208362
 21
278.69260431091573
  0
LINE
  8
_0-0_本体
  6
CONTINUOUS
 62
    7
 10
649.45209182208362
 20
278.69260431091573
 11
650.34379182208352
 21
279.47100431091587
  0
LINE
  8
_0-0_本体
  6
CONTINUOUS
 62
    7
 10
650.34379182208352
 20
279.47100431091587
 11
649.45209182208362
 21
283.53220431091574
  0
LINE
  8
_0-0_本体
  6
CONTINUOUS
 62
    7
 10
649.45209182208362
 20
283.53220431091574
 11
648.5603918220836
 21
284.31060431091589
  0
LINE
  8
_0-0_本体
  6
CONTINUOUS
 62
    7
 10
649.65729182208361
 20
283.71140431091578
 11
657.79909182208371
 21
281.34360430203111
  0
LINE
  8
_0-0_本体
  6
CONTINUOUS
 62
    7
 10
657.79909182208371
 20
281.34360430203111
 11
650.32510603610308
 21
279.55610772464661
  0
LINE
  8
_0-0_本体
  6
CONTINUOUS
 62
    7
 10
657.03010746716313
 20
281.15969213764606
 11
656.96228554880827
 21
281.58696448052922
  0
LINE
  8
_0-0_本体
  6
CONTINUOUS
 62
    7
 10
651.0701061951097
 20
279.73428377053546
 11
650.47663155432599
 21
283.47312375559841
  0
LINE
  8
_0-0_本体
  6
CONTINUOUS
 62
    7
 10
651.81510635411632
 20
279.91245981642419
 11
651.28733830363626
 21
283.23735384621472
  0
LINE
  8
_0-0_本体
  6
CONTINUOUS
 62
    7
 10
652.56010651312306
 20
280.09063586231315
 11
652.09804505294665
 21
283.0015839368312
  0
LINE
  8
_0-0_本体
  6
CONTINUOUS
 62
    7
 10
653.30510667212968
 20
280.26881190820188
 11
652.9087518022568
 21
282.76581402744739
  0
LINE
  8
_0-0_本体
  6
CONTINUOUS
 62
    7
 10
654.05010683113642
 20
280.44698795409067
 11
653.71945855156707
 21
282.53004411806381
  0
LINE
  8
_0-0_本体
  6
CONTINUOUS
 62
    7
 10
654.79510699014304
 20
280.62516399997952
 11
654.53016530087746
 21
282.29427420868012
  0
LINE
  8
_0-0_本体
  6
CONTINUOUS
 62
    7
 10
655.54010714914978
 20
280.80334004586837
 11
655.34087205018761
 21
282.05850429929649
  0
LINE
  8
_0-0_本体
  6
CONTINUOUS
 62
    7
 10
656.2851073081564
 20
280.98151609175727
 11
656.15157879949788
 21
281.82273438991291
  0
LINE
  8
_0-0_本体
  6
DASHED1
 62
    7
 10
582.79909182208371
 20
273.63040431091588
 11
569.79909182208371
 21
273.63040431091588
  0
LINE
  8
_0-0_本体
  6
DASHED1
 62
    7
 10
582.79909182208371
 20
289.37280431091574
 11
569.79909182208371
 21
289.37280431091574
  0
LINE
  8
_0-0_本体
  6
CONTINUOUS
 62
    7
 10
569.79909182208371
 20
273.63040431091588
 11
563.79909182208371
 21
273.63040431091588
  0
LINE
  8
_0-0_本体
  6
CONTINUOUS
 62
    7
 10
569.79909182208371
 20
273.63040431091588
 11
569.79909182208371
 21
289.37280431091574
  0
LINE
  8
_0-0_本体
  6
CONTINUOUS
 62
    7
 10
563.79909182208371
 20
289.37280431091574
 11
569.79909182208371
 21
289.37280431091574
  0
LINE
  8
_0-0_本体
  6
CONTINUOUS
 62
    7
 10
562.79909182208371
 20
271.63040431091594
 11
562.79909182208371
 21
291.3728043109158
  0
LINE
  8
_0-0_本体
  6
CONTINUOUS
 62
    7
 10
563.79909182208371
 20
271.63040431091594
 11
562.79909182208371
 21
271.63040431091594
  0
LINE
  8
_0-0_本体
  6
CONTINUOUS
 62
    7
 10
563.79909182208371
 20
291.3728043109158
 11
562.79909182208371
 21
291.3728043109158
  0
LINE
  8
_0-0_本体
  6
CENTER2
 62
   18
 10
558.79909182208382
 20
281.34360430203111
 11
662.79909182208371
 21
281.34360430203111
  0
SOLID
  8
_0-f_
  6
CONTINUOUS
 62
    7
 10
562.57933357617856
 20
270.46846185955729
 11
560.02711751827201
 21
260.94346185955715
 12
555.6065496340849
 22
263.49567791746369
 13
555.6065496340849
 23
263.49567791746369
  0
TEXT
  8
_0-e_文字
 62
    4
 10
862.79048042186878
 20
261.26239887992836
 40
9
 41
1
 50
0
  1
玄関ポーチFL
  0
LINE
  8
_0-f_
  6
CONTINUOUS
 62
    7
 10
531.27362884524325
 20
228.43412369525973
 11
538.31080843702102
 21
228.43412369525973
  0
LINE
  8
_0-f_
  6
CONTINUOUS
 62
    7
 10
538.31080843702102
 20
228.43412369525973
 11
562.57933357617856
 21
270.46846185955729
  0
CIRCLE
  8
_0-0_本体
  6
CONTINUOUS
 62
    7
 10
577.78659182208366
 20
365.093604302031
 40
14.25
  0
CIRCLE
  8
_0-0_本体
  6
CONTINUOUS
 62
   18
 10
577.78659182208366
 20
365.093604302031
 40
1
  0
CIRCLE
  8
_0-0_本体
  6
CONTINUOUS
 62
   18
 10
577.78659182208366
 20
365.093604302031
 40
6.9999999999999991
  0
CIRCLE
  8
_0-0_本体
  6
CONTINUOUS
 62
   18
 10
577.78659182208366
 20
365.093604302031
 40
13.75
  0
LINE
  8
_0-0_本体
  6
CENTER1
 62
   18
 10
594.03659182208378
 20
365.093604302031
 11
561.53659182208389
 21
365.093604302031
  0
LINE
  8
_0-d_寸法
  6
CONTINUOUS
 62
   18
 10
587.86286345399208
 20
375.1698759339393
 11
567.71032019017548
 21
355.0173326701227
  0
POINT
  8
_0-d_寸法
 62
    7
 10
567.71032019017548
 20
355.0173326701227
  0
POINT
  8
_0-d_寸法
 62
    7
 10
587.86286345399208
 20
375.1698759339393
  0
TEXT
  8
_0-e_文字
 62
    7
 10
260.70967741935476
 20
245.75806451612917
 40
9
 41
1
 50
0
  1
105x105
  0
LINE
  8
_0-0_本体
  6
CONTINUOUS
 62
    7
 10
572.28659182208366
 20
351.94778747689617
 11
572.28659182208366
 21
343.343604302031
  0
LINE
  8
_0-0_本体
  6
CENTER1
 62
   18
 10
577.78659182208366
 20
381.34360430203105
 11
577.78659182208366
 21
348.84360430203111
  0
TEXT
  8
_0-e_文字
 62
    7
 10
623.65810725883921
 20
242.39820301882975
 40
9
 41
1
 50
0
  1
105x105
  0
LINE
  8
_0-0_本体
  6
CONTINUOUS
 62
   18
 10
579.28659182208366
 20
307.343604302031
 11
579.28659182208366
 21
296.34360430203094
  0
LINE
  8
_0-0_本体
  6
CONTINUOUS
 62
    7
 10
579.28659182208366
 20
350.92277158126268
 11
579.28659182208366
 21
307.343604302031
  0
LINE
  8
_0-0_本体
  6
CONTINUOUS
 62
    7
 10
583.28659182208366
 20
351.94778747689617
 11
583.28659182208366
 21
307.343604302031
  0
LINE
  8
_0-0_本体
  6
CONTINUOUS
 62
    7
 10
583.28659182208366
 20
307.343604302031
 11
579.28659182208366
 21
307.343604302031
  0
LINE
  8
_0-0_本体
  6
CONTINUOUS
 62
    7
 10
576.28659182208366
 20
307.343604302031
 11
574.14924224486117
 21
307.343604302031
  0
LINE
  8
_0-0_本体
  6
CONTINUOUS
 62
    7
 10
576.28659182208366
 20
350.92277158126268
 11
576.28659182208366
 21
307.343604302031
  0
LINE
  8
_0-0_本体
  6
DASHED1
 62
    7
 10
574.14924224486117
 20
307.343604302031
 11
572.28659182208366
 21
307.343604302031
  0
LINE
  8
_0-0_本体
  6
DASHED1
 62
    7
 10
572.28659182208366
 20
343.343604302031
 11
572.28659182208366
 21
307.343604302031
  0
TEXT
  8
_0-e_文字
 62
    7
 10
152.27125377077755
 20
227.95305430230837
 40
9
 41
1
 50
0
  1
PBt=12.5
  0
TEXT
  8
_0-e_文字
 62
    7
 10
477.56030575773593
 20
222.67832567698179
 40
9
 41
1
 50
0
  1
樹脂キャップ
  0
LINE
  8
_0-1_躯体
  6
CONTINUOUS
 62
    7
 10
357.60509182208364
 20
343.343604302031
 11
241.60509182208375
 21
343.343604302031
  0
LINE
  8
_0-1_躯体
  6
CONTINUOUS
 62
    7
 10
367.60509182208375
 20
301.343604302031
 11
367.60509182208375
 21
261.34360430203105
  0
LINE
  8
_0-1_躯体
  6
CONTINUOUS
 62
    7
 10
367.60509182208375
 20
301.343604302031
 11
357.60509182208364
 21
301.343604302031
  0
LINE
  8
_0-1_躯体
  6
CONTINUOUS
 62
    7
 10
367.60509182208375
 20
261.34360430203105
 11
357.60509182208364
 21
261.34360430203105
  0
TEXT
  8
_0-e_文字
 62
    4
 10
154.07791092859441
 20
219.75475424995074
 40
7.4999999999999574
 41
1.0000000000000031
 50
0
  1
(建築工事)
  0
TEXT
  8
_0-e_文字
 62
    4
 10
409.7489933101005
 20
218.06139875195953
 40
9
 41
1
 50
0
  1
内部・
  0
LINE
  8
_0-f_
  6
CONTINUOUS
 62
    7
 10
311.76620737627013
 20
192.38790252957233
 11
325.99177394015567
 21
192.38790252957233
  0
LINE
  8
_0-f_
  6
CONTINUOUS
 62
    7
 10
325.99177394015567
 20
192.38790252957233
 11
357.83027930225012
 21
247.53380248303361
  0
TEXT
  8
_0-e_文字
 62
    7
 10
281.37213661904286
 20
210.60625536997489
 40
9
 41
1
 50
0
  1
クサビ
  0
LINE
  8
_0-f_
  6
CONTINUOUS
 62
    7
 10
310.41584283521797
 20
215.80376371508535
 11
324.47117605578148
 21
215.80376371508535
  0
LINE
  8
_0-f_
  6
CONTINUOUS
 62
    7
 10
324.47117605578148
 20
215.80376371508535
 11
357.97806347758319
 21
273.8393856923168
  0
TEXT
  8
_0-e_文字
 62
    4
 10
281.94834055947581
 20
202.66713242303348
 40
7.4999999999999574
 41
1.0000000000000027
 50
0
  1
(建築工事)
  0
LINE
  8
_0-1_躯体
  6
CONTINUOUS
 62
    7
 10
617.79909182208371
 20
343.343604302031
 11
617.79909182208371
 21
238.343604302031
  0
LINE
  8
_0-1_躯体
  6
CONTINUOUS
 62
    7
 10
617.79909182208371
 20
343.343604302031
 11
733.79909182208348
 21
343.343604302031
  0
SOLID
  8
_0-f_
  6
CONTINUOUS
 62
    7
 10
357.83027930225012
 20
247.53380248303361
 11
355.11221778789604
 21
238.0547954986273
 12
350.73686548956761
 22
240.6837723890647
 13
350.73686548956761
 23
240.6837723890647
  0
SOLID
  8
_0-f_
  6
CONTINUOUS
 62
    7
 10
357.97806347758319
 20
273.8393856923168
 11
355.26000196322912
 21
264.36037870791057
 12
350.88464966490068
 22
266.9893555983478
 13
350.88464966490068
 23
266.9893555983478
  0
SOLID
  8
_0-f_
  6
CONTINUOUS
 62
    7
 10
374.90096696732951
 20
215.92960656496115
 11
381.87375090942317
 21
208.95682262286766
 12
377.45318302523606
 22
206.40460656496111
 13
377.45318302523606
 23
206.40460656496111
  0
LINE
  8
_0-1_躯体
  6
CONTINUOUS
 62
    7
 10
649.52479588960489
 20
299.20822691066201
 11
649.50917238104103
 21
299.19767430385525
  0
LINE
  8
_0-1_躯体
  6
CONTINUOUS
 62
    7
 10
617.79909182208371
 20
301.343604302031
 11
617.79909182208371
 21
261.34360430203105
  0
LINE
  8
_0-1_躯体
  6
CONTINUOUS
 62
    7
 10
617.79909182208371
 20
301.343604302031
 11
607.79909182208371
 21
301.343604302031
  0
LINE
  8
_0-1_躯体
  6
CONTINUOUS
 62
    7
 10
617.79909182208371
 20
261.34360430203105
 11
607.79909182208371
 21
261.34360430203105
  0
LINE
  8
_0-1_躯体
  6
CONTINUOUS
 62
    7
 10
607.79909182208371
 20
301.343604302031
 11
607.79909182208371
 21
261.34360430203105
  0
LINE
  8
_0-1_躯体
  6
CONTINUOUS
 62
    7
 10
357.60509182208364
 20
301.343604302031
 11
357.60509182208364
 21
261.34360430203105
  0
LINE
  8
_0-1_躯体
  6
CONTINUOUS
 62
    7
 10
367.60509182208375
 20
301.343604302031
 11
357.60509182208364
 21
261.34360430203105
  0
LINE
  8
_0-1_躯体
  6
CONTINUOUS
 62
    7
 10
617.79909182208371
 20
301.343604302031
 11
607.79909182208371
 21
261.34360430203105
  0
LINE
  8
_0-7_ハッチ
  6
CONTINUOUS
 62
   18
 10
886.93239971334344
 20
249.17793037070501
 11
870.29239971334346
 21
232.53793037070488
  0
TEXT
  8
_0-e_文字
 62
    7
 10
407.38901964603122
 20
195.69077724989364
 40
9
 41
1
 50
0
  1
内額縁
  0
TEXT
  8
_0-e_文字
 62
    7
 10
282.72250116009502
 20
187.19039418446187
 40
9
 41
1
 50
0
  1
断熱材
  0
TEXT
  8
_0-e_文字
 62
    4
 10
405.87712319303563
 20
187.09551838238229
 40
7.4999999999999574
 41
1.0000000000000049
 50
0
  1
(建築工事)
  0
LINE
  8
_0-d_寸法
  6
CONTINUOUS
 62
   18
 10
1054.0923997133432
 20
672.06456181024328
 11
1073.0923997133432
 21
672.06456181024328
  0
TEXT
  8
_0-e_文字
 62
    7
 10
172.54664677944373
 20
185.89263987543873
 40
9
 41
1
 50
0
  1
気密シート
  0
TEXT
  8
_0-e_文字
 62
    4
 10
283.29870510052797
 20
179.25127123752046
 40
7.4999999999999574
 41
1.0000000000000027
 50
0
  1
(建築工事)
  0
TEXT
  8
_0-e_文字
 62
    4
 10
180.97328686977477
 20
176.89963968724911
 40
7.4999999999999574
 41
1.0000000000000031
 50
0
  1
(建築工事)
  0
LINE
  8
_2-0_
  6
CONTINUOUS
 62
   18
 10
707.51090137237043
 20
565.08173766093034
 11
707.51090137237043
 21
598.68173766093037
  0
ARC
  8
_2-0_
  6
CONTINUOUS
 62
   18
 10
708.71090137237047
 20
565.08173766093034
 40
1.2000000000000002
 50
180
 51
270
  0
LINE
  8
_2-0_
  6
CONTINUOUS
 62
   18
 10
732.71090137237047
 20
563.88173766093041
 11
708.71090137237047
 21
563.88173766093041
  0
ARC
  8
_2-0_
  6
CONTINUOUS
 62
   18
 10
732.71090137237047
 20
565.08173766093034
 40
1.2000000000000002
 50
270
 51
0
  0
LINE
  8
_2-0_
  6
CONTINUOUS
 62
   18
 10
733.91090137237052
 20
625.68173766093037
 11
733.91090137237052
 21
565.08173766093034
  0
ARC
  8
_2-0_
  6
CONTINUOUS
 62
   18
 10
732.71090137237047
 20
625.68173766093037
 40
1.2000000000000002
 50
0
 51
90
  0
LINE
  8
_2-0_
  6
CONTINUOUS
 62
   18
 10
732.71090137237047
 20
626.88173766093041
 11
719.20340137237042
 21
626.88173766093041
  0
LINE
  8
_2-0_
  6
CONTINUOUS
 62
   18
 10
707.51090137237043
 20
598.68173766093037
 11
716.80340137237044
 21
598.68173766093037
  0
LINE
  8
_2-0_
  6
CONTINUOUS
 62
   18
 10
716.80340137237044
 20
605.2817376609305
 11
716.80340137237044
 21
598.68173766093037
  0
LINE
  8
_2-0_
  6
CONTINUOUS
 62
    7
 10
716.80340137237044
 20
631.42923802846929
 11
716.80340137237044
 21
605.2817376609305
  0
LINE
  8
_2-0_
  6
CONTINUOUS
 62
    7
 10
719.20340137237042
 20
632.04424756584945
 11
719.20340137237042
 21
605.2817376609305
  0
LINE
  8
_2-0_
  6
CONTINUOUS
 62
    7
 10
719.20340137237042
 20
605.2817376609305
 11
716.80340137237044
 21
605.2817376609305
  0
LINE
  8
_2-7_
  6
CONTINUOUS
 62
   18
 10
717.7607013723707
 20
563.88173766093041
 11
707.51090137237043
 21
574.13153766093046
  0
LINE
  8
_2-7_
  6
CONTINUOUS
 62
   18
 10
733.91090137237052
 20
612.38938173262818
 11
719.41854544406851
 21
626.88173766093041
  0
LINE
  8
_2-7_
  6
CONTINUOUS
 62
   18
 10
733.56653005802013
 20
564.24036999320515
 11
707.51090137237043
 21
590.29599867885486
  0
LINE
  8
_2-7_
  6
CONTINUOUS
 62
   18
 10
733.91090137237052
 20
580.06045969677939
 11
715.28962340821954
 21
598.68173766093037
  0
LINE
  8
_2-7_
  6
CONTINUOUS
 62
   18
 10
733.91090137237052
 20
596.22492071470379
 11
717.94450157987455
 21
612.19132050719963
  0
LINE
  8
_2-0_
  6
CONTINUOUS
 62
   18
 10
702.8534013723704
 20
641.04243056706559
 11
702.8534013723704
 21
677.00423766093036
  0
LINE
  8
_2-0_
  6
CONTINUOUS
 62
   18
 10
675.8534013723704
 20
653.72423766093038
 11
677.65340137237047
 21
653.72423766093038
  0
LINE
  8
_2-0_
  6
CONTINUOUS
 62
   18
 10
675.8534013723704
 20
650.72423766093038
 11
675.8534013723704
 21
653.72423766093038
  0
LINE
  8
_2-0_
  6
CONTINUOUS
 62
    7
 10
676.1535039372219
 20
653.27423766093045
 11
677.20340137237042
 21
653.27423766093045
  0
LINE
  8
_2-0_
  6
CONTINUOUS
 62
    7
 10
675.1034013723704
 20
641.00403253122749
 11
675.1034013723704
 21
648.02423766093045
  0
LINE
  8
_2-0_
  6
CONTINUOUS
 62
    7
 10
674.05340137237044
 20
648.77423766093045
 11
674.3534013723704
 21
648.77423766093045
  0
LINE
  8
_2-0_
  6
CONTINUOUS
 62
    7
 10
674.05340137237044
 20
650.27423766093034
 11
677.20340137237042
 21
650.27423766093034
  0
LINE
  8
_2-0_
  6
CONTINUOUS
 62
    7
 10
676.27737493221821
 20
640.95966010144298
 11
676.27104336813409
 21
640.95028599630484
  0
ARC
  8
_2-0_
  6
CONTINUOUS
 62
    7
 10
675.55340137237033
 20
641.00403253122749
 40
0.45
 50
180
 51
270
  0
ARC
  8
_2-0_
  6
CONTINUOUS
 62
    7
 10
674.05340137237044
 20
649.52423766093034
 40
0.75
 50
180
 51
270
  0
ARC
  8
_2-0_
  6
CONTINUOUS
 62
    7
 10
674.05340137237044
 20
649.52423766093034
 40
0.75
 50
90
 51
180
  0
ARC
  8
_2-0_
  6
CONTINUOUS
 62
    7
 10
674.3534013723704
 20
648.02423766093045
 40
0.75
 50
0
 51
90
  0
ARC
  8
_2-0_
  6
CONTINUOUS
 62
    7
 10
675.52522876077285
 20
641.45403253122731
 40
0.9000000000000001
 50
270
 51
325.96367646253134
  0
LINE
  8
_2-0_
  6
CONTINUOUS
 62
    7
 10
676.51839493583043
 20
641.38569366241381
 11
676.27737493221821
 21
640.95966010144298
  0
LINE
  8
_2-0_
  6
CONTINUOUS
 62
    7
 10
676.72495010812372
 20
641.82946184290176
 11
676.51839493583043
 21
641.38569366241381
  0
LINE
  8
_2-0_
  6
CONTINUOUS
 62
    7
 10
676.89574527989816
 20
642.2881820697429
 11
676.72495010812372
 21
641.82946184290176
  0
LINE
  8
_2-0_
  6
CONTINUOUS
 62
    7
 10
677.029709508976
 20
642.75897801550104
 11
676.89574527989816
 21
642.2881820697429
  0
LINE
  8
_2-0_
  6
CONTINUOUS
 62
    7
 10
677.126002795364
 20
643.23889763399075
 11
677.029709508976
 21
642.75897801550104
  0
LINE
  8
_2-0_
  6
CONTINUOUS
 62
    7
 10
677.18402134832991
 20
643.72493167058326
 11
677.126002795364
 21
643.23889763399075
  0
LINE
  8
_2-0_
  6
CONTINUOUS
 62
    7
 10
677.20340137237042
 20
644.21403253122742
 11
677.18402134832991
 21
643.72493167058326
  0
LINE
  8
_2-0_
  6
CONTINUOUS
 62
    7
 10
677.20340137237042
 20
653.27423766093045
 11
677.20340137237042
 21
644.21403253122742
  0
LINE
  8
_2-0_
  6
CONTINUOUS
 62
   18
 10
664.45340137237054
 20
677.00423766093036
 11
664.45340137237054
 21
652.32649393044733
  0
LINE
  8
_2-0_
  6
CONTINUOUS
 62
   18
 10
666.05565764188736
 20
650.72423766093038
 11
675.8534013723704
 21
650.72423766093038
  0
LINE
  8
_2-0_
  6
CONTINUOUS
 62
   18
 10
666.05565764188736
 20
650.72423766093038
 11
664.45340137237054
 21
652.32649393044733
  0
LINE
  8
_2-0_
  6
CONTINUOUS
 62
   18
 10
702.8534013723704
 20
641.04243056706559
 11
677.65340137237047
 21
642.32907790595357
  0
LINE
  8
_2-0_
  6
CONTINUOUS
 62
   18
 10
677.65340137237047
 20
642.32907790595357
 11
677.65340137237047
 21
653.72423766093038
  0
CIRCLE
  8
_2-0_
  6
CONTINUOUS
 62
    7
 10
715.90340137237047
 20
639.93173766093037
 40
8.5500000000000007
  0
CIRCLE
  8
_2-0_
  6
CONTINUOUS
 62
   18
 10
715.90340137237047
 20
639.93173766093037
 40
0.6
  0
CIRCLE
  8
_2-0_
  6
CONTINUOUS
 62
   18
 10
715.90340137237047
 20
639.93173766093037
 40
4.2000000000000011
  0
CIRCLE
  8
_2-0_
  6
CONTINUOUS
 62
   18
 10
715.90340137237047
 20
639.93173766093037
 40
8.25
  0
LINE
  8
_2-0_
  6
CENTER1
 62
   18
 10
715.90340137237047
 20
630.18173766093037
 11
715.90340137237047
 21
649.68173766093037
  0
LINE
  8
_2-0_
  6
CONTINUOUS
 62
    7
 10
708.01591127728943
 20
643.23173766093032
 11
702.8534013723704
 21
643.23173766093032
  0
LINE
  8
_2-0_
  6
CENTER1
 62
   18
 10
725.65340137237047
 20
639.93173766093037
 11
706.15340137237047
 21
639.93173766093037
  0
LINE
  8
_2-0_
  6
CONTINUOUS
 62
    7
 10
681.25340137237049
 20
640.83173766093034
 11
681.25340137237049
 21
642.114147407264
  0
LINE
  8
_2-0_
  6
CONTINUOUS
 62
    7
 10
707.40090173990939
 20
640.83173766093034
 11
681.25340137237049
 21
640.83173766093034
  0
LINE
  8
_2-0_
  6
DASHED1
 62
    7
 10
681.25340137237049
 20
642.114147407264
 11
681.25340137237049
 21
643.23173766093032
  0
LINE
  8
_2-0_
  6
DASHED1
 62
    7
 10
702.8534013723704
 20
643.23173766093032
 11
681.25340137237049
 21
643.23173766093032
  0
LINE
  8
_2-7_
  6
CONTINUOUS
 62
   18
 10
518.1243437836705
 20
623.98866987602401
 11
521.01741156857679
 21
626.88173766093041
  0
LINE
  8
ADD_LINE
  6
DOT
 62
    9
 10
518.1243437836705
 20
565.08173766093034
 11
518.1243437836705
 21
563.1507997942025
  0
LINE
  8
_2-0_
  6
CONTINUOUS
 62
   18
 10
544.52434378367047
 20
565.08173766093034
 11
544.52434378367047
 21
598.68173766093037
  0
ARC
  8
_2-0_
  6
CONTINUOUS
 62
   18
 10
543.32434378367043
 20
565.08173766093034
 40
1.2000000000000002
 50
270
 51
0
  0
LINE
  8
_2-0_
  6
CONTINUOUS
 62
   18
 10
519.32434378367043
 20
563.88173766093041
 11
543.32434378367043
 21
563.88173766093041
  0
ARC
  8
_2-0_
  6
CONTINUOUS
 62
   18
 10
519.32434378367043
 20
565.08173766093034
 40
1.2000000000000002
 50
180
 51
270
  0
LINE
  8
_2-0_
  6
CONTINUOUS
 62
   18
 10
518.12434378367038
 20
625.68173766093037
 11
518.12434378367038
 21
565.08173766093034
  0
ARC
  8
_2-0_
  6
CONTINUOUS
 62
   18
 10
519.32434378367043
 20
625.68173766093037
 40
1.2000000000000002
 50
90
 51
180
  0
LINE
  8
_2-0_
  6
CONTINUOUS
 62
   18
 10
534.32434378367043
 20
626.88173766093041
 11
519.32434378367043
 21
626.88173766093041
  0
ARC
  8
_2-0_
  6
CONTINUOUS
 62
   18
 10
534.32434378367043
 20
625.68173766093037
 40
1.2000000000000002
 50
0
 51
90.000000000000014
  0
LINE
  8
_2-0_
  6
CONTINUOUS
 62
   18
 10
535.52434378367047
 20
625.68173766093037
 11
535.52434378367047
 21
598.68173766093037
  0
LINE
  8
_2-0_
  6
CONTINUOUS
 62
   18
 10
544.52434378367047
 20
598.68173766093037
 11
535.52434378367047
 21
598.68173766093037
  0
LINE
  8
_2-0_
  6
CONTINUOUS
 62
   18
 10
531.92434378367034
 20
563.88173766093041
 11
538.96573662937931
 21
563.88173766093041
  0
LINE
  8
_2-7_
  6
CONTINUOUS
 62
   18
 10
518.1243437836705
 20
607.82420885809961
 11
535.52434378367047
 21
625.22420885809959
  0
LINE
  8
_2-7_
  6
CONTINUOUS
 62
   18
 10
518.1243437836705
 20
591.65974784017521
 11
535.52434378367047
 21
609.05974784017508
  0
LINE
  8
_2-7_
  6
CONTINUOUS
 62
   18
 10
518.1243437836705
 20
575.49528682225059
 11
541.40559462768101
 21
598.77653766626122
  0
LINE
  8
_2-7_
  6
CONTINUOUS
 62
   18
 10
522.77005564560545
 20
563.97653766626127
 11
544.52434378367047
 21
585.73082580432629
  0
LINE
  8
_2-7_
  6
CONTINUOUS
 62
   18
 10
538.93451666352985
 20
563.97653766626127
 11
544.52434378367047
 21
569.56636478640189
  0
LINE
  8
_2-d_
  6
CONTINUOUS
 62
   18
 10
544.52434378367047
 20
554.88173766093041
 11
544.52434378367047
 21
505.69840392924812
  0
LINE
  8
_2-d_
  6
CONTINUOUS
 62
   18
 10
518.1243437836705
 20
554.88173766093041
 11
518.1243437836705
 21
505.69840392924812
  0
LINE
  8
_2-d_
  6
CONTINUOUS
 62
   18
 10
707.51090137237043
 20
554.88173766093041
 11
707.51090137237043
 21
505.69840392924812
  0
LINE
  8
_2-d_
  6
CONTINUOUS
 62
   18
 10
733.91090137237052
 20
554.88173766093041
 11
733.91090137237052
 21
505.69840392924812
  0
LINE
  8
_2-d_
  6
CONTINUOUS
 62
   18
 10
739.91090137237052
 20
511.69840392924812
 11
512.1243437836705
 21
511.69840392924812
  0
CIRCLE
  8
_2-d_
  6
CONTINUOUS
 62
   18
 10
518.1243437836705
 20
511.69840392924812
 40
1.8000000000000003
  0
CIRCLE
  8
_2-d_
  6
CONTINUOUS
 62
   18
 10
544.52434378367047
 20
511.69840392924812
 40
1.8000000000000003
  0
CIRCLE
  8
_2-d_
  6
CONTINUOUS
 62
   18
 10
707.51090137237043
 20
511.69840392924812
 40
1.8000000000000003
  0
CIRCLE
  8
_2-d_
  6
CONTINUOUS
 62
   18
 10
733.91090137237052
 20
511.69840392924812
 40
1.8000000000000003
  0
TEXT
  8
_2-d_
 62
    4
 10
526.82434378367043
 20
513.19840392924812
 40
9
 41
1
 50
0
  1
44
  0
TEXT
  8
_2-d_
 62
    4
 10
716.21090137237047
 20
513.19840392924812
 40
9
 41
1
 50
0
  1
44
  0
TEXT
  8
_2-e_
 62
    4
 10
525.62899087560299
 20
581.88087323665491
 40
9
 41
1
 50
0
  1
枠
  0
TEXT
  8
_2-e_
 62
    4
 10
719.12766022242454
 20
582.15834258487666
 40
9
 41
1
 50
0
  1
枠
  0
TEXT
  8
_2-e_
 62
    4
 10
676.70045210284582
 20
663.04474655385775
 40
9
 41
1
 50
0
  1
ドア
  0
LINE
  8
_2-d_
  6
CONTINUOUS
 62
   18
 10
664.45340137237054
 20
554.88173766093041
 11
664.45340137237054
 21
505.69840392924812
  0
CIRCLE
  8
_2-d_
  6
CONTINUOUS
 62
   18
 10
664.45340137237054
 20
511.69840392924812
 40
1.8000000000000003
  0
TEXT
  8
_2-d_
 62
    4
 10
682.29445518061539
 20
515.1410286903523
 40
9
 41
1
 50
0
  1
84
  0
TEXT
  8
_2-d_
 62
    4
 10
581.20761111936974
 20
513.43922996878246
 40
9
 41
1
 50
0
  1
有効開口816
  0
TEXT
  8
_0-d_寸法
 62
    4
 10
1135.1379715765872
 20
365.68479103196535
 40
10.499999999999659
 41
1.0000000000000366
 50
90
  1
H＝2,180
  0
LINE
  8
_0-2_造作工事
  6
CONTINUOUS
 62
    7
 10
629.79909182208371
 20
225.84360430203094
 11
629.79909182208371
 21
215.843604302031
  0
LINE
  8
_0-7_ハッチ
  6
CONTINUOUS
 62
   18
 10
623.25940570240164
 20
225.84360430203094
 11
613.25940570240175
 21
215.843604302031
  0
LINE
  8
_0-7_ハッチ
  6
CONTINUOUS
 62
   18
 10
629.79909182208371
 20
218.24115479798201
 11
627.4015413261327
 21
215.843604302031
  0
LINE
  8
_0-7_ハッチ
  6
CONTINUOUS
 62
   18
 10
629.79909182208371
 20
225.31222260984748
 11
620.33047351426717
 21
215.843604302031
  0
LINE
  8
_0-1_躯体
  6
CONTINUOUS
 62
    7
 10
617.79909182208371
 20
238.343604302031
 11
617.79909182208371
 21
227.44682462119422
  0
LINE
  8
_0-1_躯体
  6
CONTINUOUS
 62
    7
 10
617.79909182208371
 20
227.44682462119422
 11
617.79909182208371
 21
225.84360430203094
  0
LINE
  8
_0-2_造作工事
  6
CONTINUOUS
 62
    7
 10
597.79909182208371
 20
217.843604302031
 11
597.79909182208371
 21
238.343604302031
  0
LINE
  8
_0-2_造作工事
  6
CONTINUOUS
 62
    7
 10
599.79909182208371
 20
215.843604302031
 11
629.79909182208371
 21
215.843604302031
  0
ARC
  8
_0-2_造作工事
  6
CONTINUOUS
 62
    7
 10
599.79909182208371
 20
217.843604302031
 40
2
 50
180
 51
270
  0
LINE
  8
_0-7_ハッチ
  6
CONTINUOUS
 62
   18
 10
607.47513445493973
 20
238.343604302031
 11
597.79909182208371
 21
228.66756166917492
  0
LINE
  8
_0-7_ハッチ
  6
CONTINUOUS
 62
   18
 10
614.54620226680527
 20
238.343604302031
 11
597.79909182208371
 21
221.59649385730941
  0
LINE
  8
_0-7_ハッチ
  6
CONTINUOUS
 62
   18
 10
617.79909182208371
 20
234.52542604544391
 11
599.20694095702447
 21
215.93327518038475
  0
LINE
  8
_0-7_ハッチ
  6
CONTINUOUS
 62
   18
 10
617.79909182208371
 20
227.45435823357843
 11
606.18833789053622
 21
215.843604302031
  0
LINE
  8
_0-7_ハッチ
  6
CONTINUOUS
 62
   18
 10
600.40406664307432
 20
238.343604302031
 11
597.79909182208371
 21
235.73862948104036
  0
LINE
  8
_0-2_造作工事
  6
CONTINUOUS
 62
    7
 10
1057.0923997133434
 20
562.86258848786679
 11
1067.0923997133432
 21
562.86258848786679
  0
LINE
  8
_0-7_ハッチ
  6
CONTINUOUS
 62
   18
 10
1057.0923997133434
 20
556.32290236818471
 11
1067.0923997133432
 21
546.32290236818471
  0
LINE
  8
_0-7_ハッチ
  6
CONTINUOUS
 62
   18
 10
1064.6948492173924
 20
562.86258848786679
 11
1067.0923997133432
 21
560.46503799191578
  0
LINE
  8
_0-7_ハッチ
  6
CONTINUOUS
 62
   18
 10
1057.6237814055269
 20
562.86258848786679
 11
1067.0923997133432
 21
553.39397018005025
  0
LINE
  8
_0-1_躯体
  6
CONTINUOUS
 62
    7
 10
1044.5923997133432
 20
550.86258848786679
 11
1055.4891793941802
 21
550.86258848786679
  0
LINE
  8
_0-1_躯体
  6
CONTINUOUS
 62
    7
 10
1055.4891793941802
 20
550.86258848786679
 11
1057.0923997133434
 21
550.86258848786679
  0
LINE
  8
_0-2_造作工事
  6
CONTINUOUS
 62
    7
 10
1065.0923997133432
 20
530.86258848786667
 11
1044.5923997133432
 21
530.86258848786667
  0
LINE
  8
_0-2_造作工事
  6
CONTINUOUS
 62
    7
 10
1067.0923997133432
 20
532.86258848786679
 11
1067.0923997133432
 21
562.86258848786679
  0
ARC
  8
_0-2_造作工事
  6
CONTINUOUS
 62
    7
 10
1065.0923997133432
 20
532.86258848786679
 40
2
 50
270
 51
0
  0
LINE
  8
_0-7_ハッチ
  6
CONTINUOUS
 62
   18
 10
1044.5923997133432
 20
540.53863112072281
 11
1054.2684423461992
 21
530.86258848786667
  0
LINE
  8
_0-7_ハッチ
  6
CONTINUOUS
 62
   18
 10
1044.5923997133432
 20
547.60969893258834
 11
1061.339510158065
 21
530.86258848786667
  0
LINE
  8
_0-7_ハッチ
  6
CONTINUOUS
 62
   18
 10
1048.4105779699303
 20
550.86258848786679
 11
1067.0027288349897
 21
532.27043762280755
  0
LINE
  8
_0-7_ハッチ
  6
CONTINUOUS
 62
   18
 10
1055.4816457817958
 20
550.86258848786679
 11
1067.0923997133432
 21
539.2518345563193
  0
LINE
  8
_0-7_ハッチ
  6
CONTINUOUS
 62
   18
 10
1044.5923997133432
 20
533.46756330885728
 11
1047.1973745343339
 21
530.86258848786667
  0
LINE
  8
_0-3_雑工事
  6
PHANTOM1
 62
    7
 10
1046.0923997133432
 20
659.83456179247355
 11
1046.0923997133432
 21
530.86258848786667
  0
LINE
  8
_0-1_躯体
  6
CONTINUOUS
 62
    7
 10
1057.0923997133432
 20
550.86258848786679
 11
1057.0923997133432
 21
659.83456179247355
  0
LINE
  8
_0-3_雑工事
  6
PHANTOM1
 62
    7
 10
597.79909182208371
 20
236.843604302031
 11
733.7990918220836
 21
236.843604302031
  0
LINE
  8
_0-1_躯体
  6
CONTINUOUS
 62
    7
 10
617.79909182208371
 20
225.84360430203094
 11
733.79909182208348
 21
225.84360430203094
  0
LINE
  8
_0-2_造作工事
  6
CONTINUOUS
 62
    7
 10
345.60509182208358
 20
238.343604302031
 11
370.60509182208352
 21
238.343604302031
  0
LINE
  8
_0-1_躯体
  6
CONTINUOUS
 62
    7
 10
357.60509182208358
 20
238.343604302031
 11
357.60509182208358
 21
225.84360430203094
  0
LINE
  8
_0-2_造作工事
  6
CONTINUOUS
 62
    7
 10
345.60509182208358
 20
225.84360430203094
 11
345.60509182208358
 21
215.843604302031
  0
LINE
  8
_0-7_ハッチ
  6
CONTINUOUS
 62
   18
 10
348.35643457434315
 20
225.84360430203094
 11
345.60509182208358
 21
223.09226154977142
  0
LINE
  8
_0-7_ハッチ
  6
CONTINUOUS
 62
   18
 10
355.42750238620863
 20
225.84360430203094
 11
345.60509182208358
 21
216.02119373790595
  0
LINE
  8
_0-7_ハッチ
  6
CONTINUOUS
 62
   18
 10
360.85643457434321
 20
238.343604302031
 11
357.60509182208358
 21
235.09226154977142
  0
LINE
  8
_0-7_ハッチ
  6
CONTINUOUS
 62
   18
 10
367.92750238620869
 20
238.343604302031
 11
357.60509182208358
 21
228.02119373790595
  0
LINE
  8
_0-1_躯体
  6
CONTINUOUS
 62
    7
 10
369.60509182208364
 20
238.343604302031
 11
357.60509182208358
 21
238.343604302031
  0
LINE
  8
_0-7_ハッチ
  6
CONTINUOUS
 62
   18
 10
374.99857019807411
 20
238.343604302031
 11
352.49857019807422
 21
215.843604302031
  0
LINE
  8
_0-7_ハッチ
  6
CONTINUOUS
 62
   18
 10
377.60509182208364
 20
233.87905811417505
 11
359.56963800993964
 21
215.843604302031
  0
LINE
  8
_0-7_ハッチ
  6
CONTINUOUS
 62
   18
 10
377.60509182208364
 20
226.80799030230963
 11
366.64070582180511
 21
215.843604302031
  0
LINE
  8
_0-7_ハッチ
  6
CONTINUOUS
 62
   18
 10
377.60509182208364
 20
219.73692249044404
 11
373.71177363367059
 21
215.843604302031
  0
LINE
  8
_0-2_造作工事
  6
CONTINUOUS
 62
    7
 10
375.60509182208358
 20
215.843604302031
 11
345.60509182208358
 21
215.843604302031
  0
LINE
  8
_0-2_造作工事
  6
CONTINUOUS
 62
    7
 10
377.60509182208364
 20
217.843604302031
 11
377.60509182208364
 21
238.343604302031
  0
ARC
  8
_0-2_造作工事
  6
CONTINUOUS
 62
    7
 10
375.60509182208358
 20
217.843604302031
 40
2
 50
270
 51
0
  0
LINE
  8
_0-1_躯体
  6
CONTINUOUS
 62
    7
 10
357.60509182208358
 20
225.84360430203094
 11
241.60509182208375
 21
225.84360430203094
  0
LINE
  8
_0-3_雑工事
  6
PHANTOM1
 62
    7
 10
377.60509182208364
 20
236.843604302031
 11
241.60509182208375
 21
236.843604302031
  0
ENDSEC
  0
EOF
