  0
SECTION
  2
HEADER
  9
$ACADVER
  1
AC1009
  9
$INSBASE
 10
0
 20
0
 30
0
  9
$EXTMIN
 10
0
 20
0
  9
$EXTMAX
 10
1260
 20
891
  9
$LIMMIN
 10
0
 20
0
  9
$LIMMAX
 10
1260
 20
891
  9
$LTSCALE
 40
3
  0
ENDSEC
  0
SECTION
  2
TABLES
  0
TABLE
  2
LTYPE
 70
     9
  0
LTYPE
  2
CONTINUOUS
 70
    64
  3
実線
 72
    65
 73
     0
 40
0.0
  0
LTYPE
  2
DASHED1
 70
    64
  3
--  --  --  --  --  --  --  --  
 72
    65
 73
     2
 40
2.5
 49
1.25
 49
-1.25
  0
LTYPE
  2
DASHED2
 70
    64
  3
----    ----    ----    ----    
 72
    65
 73
     2
 40
5.0
 49
2.5
 49
-2.5
  0
LTYPE
  2
DASHED3
 70
    64
  3
------  ------  ------  ------  
 72
    65
 73
     2
 40
5.0
 49
3.75
 49
-1.25
  0
LTYPE
  2
CENTER1
 70
    64
  3
----- - ----- - ----- - ----- - 
 72
    65
 73
     4
 40
10.0
 49
6.25
 49
-1.25
 49
1.25
 49
-1.25
  0
LTYPE
  2
CENTER2
 70
    64
  3
----------  --  ----------  --  
 72
    65
 73
     4
 40
20.0
 49
12.5
 49
-2.5
 49
2.5
 49
-2.5
  0
LTYPE
  2
PHANTOM1
 70
    64
  3
--- - - --- - - --- - - --- - - 
 72
    65
 73
     6
 40
10.0
 49
3.25
 49
-1.25
 49
1.25
 49
-1.25
 49
1.25
 49
-1.25
  0
LTYPE
  2
PHANTOM2
 70
    64
  3
--------  -  -  --------  -  -  
 72
    65
 73
     6
 40
20.0
 49
10.0
 49
-2.5
 49
1.25
 49
-2.5
 49
1.25
 49
-2.5
  0
LTYPE
  2
DOT
 70
    64
  3
-   -   -   -   -   -   -   -   
 72
    65
 73
     2
 40
2.5
 49
0.625
 49
-1.875
  0
LTYPE
  2
DUMMY
 70
    64
  3
ダミー
 72
    65
 73
     0
 40
0.0
  0
LTYPE
  2
RAND1
 70
    64
  3
ランダム線1
 72
    65
 73
     4
 40
10.0
 49
1.0
 49
-2.0
 49
3.0
 49
-4.0
  0
LTYPE
  2
RAND2
 70
    64
  3
ランダム線2
 72
    65
 73
     4
 40
14.0
 49
2.0
 49
-3.0
 49
4.0
 49
-5.0
  0
LTYPE
  2
RAND3
 70
    64
  3
ランダム線3
 72
    65
 73
     4
 40
18.0
 49
3.0
 49
-4.0
 49
5.0
 49
-6.0
  0
LTYPE
  2
RAND4
 70
    64
  3
ランダム線4
 72
    65
 73
     4
 40
22.0
 49
4.0
 49
-5.0
 49
6.0
 49
-7.0
  0
LTYPE
  2
RAND5
 70
    64
  3
ランダム線5
 72
    65
 73
     4
 40
26.0
 49
5.0
 49
-6.0
 49
7.0
 49
-8.0
  0
LTYPE
  2
LONG1
 70
    64
  3
----------  --  ----------  --  
 72
    65
 73
     4
 40
40.0
 49
32.5
 49
-2.5
 49
2.5
 49
-2.5
  0
LTYPE
  2
LONG2
 70
    64
  3
--------  -  -  --------  -  -  
 72
    65
 73
     6
 40
40.0
 49
30.0
 49
-2.5
 49
1.25
 49
-2.5
 49
1.25
 49
-2.5
  0
LTYPE
  2
LONG3
 70
    64
  3
+++++++++++++++..+++++++++++++++
 72
    65
 73
     2
 40
40.0
 49
37.5
 49
-2.5
  0
LTYPE
  2
LONG4
 70
    64
  3
+++++++++++++++..+++++++++++++++
 72
    65
 73
     2
 40
80.0
 49
75.0
 49
-5.0
  0
LTYPE
  2
LONG5
 70
    64
  3
----------  --  ----------  --  
 72
    65
 73
     4
 40
60.0
 49
37.5
 49
-7.5
 49
7.5
 49
-7.5
  0
LTYPE
  2
dashed
 70
   64
  3
-------   -------------   ------
 72
   65
 73
    2
 40
7.5
 49
6
 49
-1.5
  0
LTYPE
  2
dashed_spaced
 70
   64
  3
----        --------        ----
 72
   65
 73
    2
 40
12
 49
6
 49
-6
  0
LTYPE
  2
long_dashed_dotted
 70
   64
  3
------------- --- --------------
 72
   65
 73
    4
 40
15.25
 49
12
 49
-1.5
 49
0.25
 49
-1.5
  0
LTYPE
  2
long_dashed_double-dotted
 70
   64
  3
----------- --- --- ------------
 72
   65
 73
    6
 40
17
 49
12
 49
-1.5
 49
0.25
 49
-1.5
 49
0.25
 49
-1.5
  0
LTYPE
  2
long_dashed_triplicate-dotted
 70
   64
  3
--------- --- --- --- ----------
 72
   65
 73
    8
 40
18.75
 49
12
 49
-1.5
 49
0.25
 49
-1.5
 49
0.25
 49
-1.5
 49
0.25
 49
-1.5
  0
LTYPE
  2
dotted
 70
   64
  3
   -       -       -       -    
 72
   65
 73
    2
 40
1.75
 49
0.25
 49
-1.5
  0
LTYPE
  2
chain
 70
   64
  3
-------------- -- --------------
 72
   65
 73
    4
 40
18.5
 49
12
 49
-1.5
 49
3.5
 49
-1.5
  0
LTYPE
  2
chain_double_dash
 70
   64
  3
------------ -- -- -------------
 72
   65
 73
    6
 40
23.5
 49
12
 49
-1.5
 49
3.5
 49
-1.5
 49
3.5
 49
-1.5
  0
LTYPE
  2
dashed_dotted
 70
   64
  3
-----------     -     ----------
 72
   65
 73
    4
 40
9.25
 49
6
 49
-1.5
 49
0.25
 49
-1.5
  0
LTYPE
  2
double-dashed_dotted
 70
   64
  3
------   -----------   -   -----
 72
   65
 73
    6
 40
16.75
 49
6
 49
-1.5
 49
6
 49
-1.5
 49
0.25
 49
-1.5
  0
LTYPE
  2
dashed_double-dotted
 70
   64
  3
---------    -    -    ---------
 72
   65
 73
    6
 40
11
 49
6
 49
-1.5
 49
0.25
 49
-1.5
 49
0.25
 49
-1.5
  0
LTYPE
  2
double-dashed_double-dotted
 70
   64
  3
-----   ---------   -   -   ----
 72
   65
 73
    8
 40
18.5
 49
6
 49
-1.5
 49
6
 49
-1.5
 49
0.25
 49
-1.5
 49
0.25
 49
-1.5
  0
LTYPE
  2
dashed_triplicate-dotted
 70
   64
  3
-------    -    -    -    ------
 72
   65
 73
    8
 40
12.75
 49
6
 49
-1.5
 49
0.25
 49
-1.5
 49
0.25
 49
-1.5
 49
0.25
 49
-1.5
  0
LTYPE
  2
double-dashed_triplicate-dotted
 70
   64
  3
-----  ---------  -  -  -  -----
 72
   65
 73
   10
 40
20.25
 49
6
 49
-1.5
 49
6
 49
-1.5
 49
0.25
 49
-1.5
 49
0.25
 49
-1.5
 49
0.25
 49
-1.5
  0
LTYPE
  2
undefined
 70
   64
  3
--------------------------------
 72
   65
 73
    0
 40
0
  0
LTYPE
  2
STYLE_01
 70
   64
  3
----        --------        ----
 72
   65
 73
    2
 40
0.4166412353515625
 49
0.208282470703125
 49
-0.2083587646484375
  0
LTYPE
  2
STYLE_02
 70
   64
  3
------     -----------     -----
 72
   65
 73
    2
 40
0.694427490234375
 49
0.4860687255859375
 49
-0.2083587646484375
  0
LTYPE
  2
STYLE_03
 70
   64
  3
-------   -------------   ------
 72
   65
 73
    2
 40
1.2499999999999996
 49
1.0416412353515621
 49
-0.2083587646484375
  0
LTYPE
  2
STYLE_04
 70
   64
  3
-------  --------------  -------
 72
   65
 73
    2
 40
1.5277099609375
 49
1.319427490234375
 49
-0.208282470703125
  0
LTYPE
  2
STYLE_05
 70
   64
  3
---           -----           --
 72
   65
 73
    2
 40
0.208282470703125
 49
0.069427490234375
 49
-0.13885498046875
  0
LTYPE
  2
STYLE_06
 70
   64
  3
----------      --    ----------
 72
   65
 73
    4
 40
1.0416412353515625
 49
0.625
 49
-0.208282470703125
 49
0.069427490234375
 49
-0.1389312744140625
  0
LTYPE
  2
STYLE_07
 70
   64
  3
-----    -----------    -  -----
 72
   65
 73
    6
 40
1.875
 49
0.625
 49
-0.208282470703125
 49
0.625
 49
-0.2083587646484375
 49
0.069427490234375
 49
-0.1389312744140625
  0
LTYPE
  2
STYLE_08
 70
   64
  3
--------     --    --    -------
 72
   65
 73
    6
 40
1.25
 49
0.625
 49
-0.208282470703125
 49
0.069427490234375
 49
-0.1389312744140625
 49
0.069427490234375
 49
-0.1389312744140625
  0
LTYPE
  2
STYLE_09
 70
   64
  3
------------  ----  ------------
 72
   65
 73
    4
 40
5
 49
3.75
 49
-0.2777862548828125
 49
0.694427490234375
 49
-0.2777862548828125
  0
LTYPE
  2
STYLE_10
 70
   64
  3
----------- ---- ---  ----------
 72
   65
 73
    6
 40
5.9375
 49
3.75
 49
-0.2777862548828125
 49
0.694427490234375
 49
-0.2777862548828125
 49
0.625
 49
-0.3125
  0
ENDTAB
  0
TABLE
  2
STYLE
  5
3
100
AcDbSymbolTable
 70
     1
  0
STYLE
  5
10
100
AcDbSymbolTableRecord
100
AcDbTextStyleTableRecord
  2
STANDARD
 70
     0
 40
0.0
 41
1.0
 50
0.0
 71
     0
 42
0.2
  3
txt
  4
bigfont.shx
  0
STYLE
  5
26
100
AcDbSymbolTableRecord
100
AcDbTextStyleTableRecord
  2
TATEGAKI
 70
    68
 40
0.0
 41
1.0
 50
0.0
 71
     0
 42
1.0
  3
txt
  4
bigfont.shx
  0
ENDTAB
  0
TABLE
  2
LAYER
 70
   13
  0
LAYER
  2
_0-1_躯体
 70
   64
 62
    7
  6
CONTINUOUS
  0
LAYER
  2
_0-2_造作工事
 70
   64
 62
    7
  6
CONTINUOUS
  0
LAYER
  2
_0-3_雑工事
 70
   64
 62
    7
  6
CONTINUOUS
  0
LAYER
  2
_0-6_
 70
   64
 62
    7
  6
CONTINUOUS
  0
LAYER
  2
_0-7_ハッチ
 70
   64
 62
    7
  6
CONTINUOUS
  0
LAYER
  2
_0-8_
 70
   64
 62
    7
  6
CONTINUOUS
  0
LAYER
  2
_0-9_
 70
   64
 62
    7
  6
CONTINUOUS
  0
LAYER
  2
_0-a_
 70
   64
 62
    7
  6
CONTINUOUS
  0
LAYER
  2
_0-d_寸法
 70
   64
 62
    7
  6
CONTINUOUS
  0
LAYER
  2
_0-e_文字
 70
   64
 62
    7
  6
CONTINUOUS
  0
LAYER
  2
_0-f_
 70
   64
 62
    7
  6
CONTINUOUS
  0
LAYER
  2
_f-0_
 70
   64
 62
    7
  6
CONTINUOUS
  0
LAYER
  2
ADD_LINE
 70
   64
 62
    7
  6
CONTINUOUS
  0
ENDTAB
  0
ENDSEC
  0
SECTION
  2
BLOCKS
  0
ENDSEC
  0
SECTION
  2
ENTITIES
  0
LINE
  8
_0-8_
  6
CONTINUOUS
 62
    3
 10
770.79214776995491
 20
514.81335057206172
 11
770.79214776995491
 21
535.68332836846162
  0
LINE
  8
_0-8_
  6
CONTINUOUS
 62
    7
 10
773.79215766754783
 20
487.81730713482557
 11
818.29214983195357
 21
487.81730713482557
  0
LINE
  8
_f-0_
  6
CONTINUOUS
 62
    7
 10
1015.5000201044859
 20
105.00000309299786
 11
1015.5000201044859
 21
45.000000000000085
  0
LINE
  8
_f-0_
  6
CONTINUOUS
 62
    7
 10
1104.0000151556892
 20
105.00000309299786
 11
1104.0000151556892
 21
45.000000000000085
  0
LINE
  8
_f-0_
  6
CONTINUOUS
 62
    3
 10
1174.5000250532826
 20
45.000000000000085
 11
85.500000000000256
 21
45.000000000000085
  0
LINE
  8
_f-0_
  6
CONTINUOUS
 62
    3
 10
85.500000000000256
 20
105.00000309299786
 11
1174.5000250532826
 21
105.00000309299786
  0
LINE
  8
_f-0_
  6
CONTINUOUS
 62
    3
 10
1174.5000250532826
 20
845.99998886520814
 11
1174.5000250532826
 21
45.000000000000085
  0
LINE
  8
_f-0_
  6
CONTINUOUS
 62
    7
 10
763.50000525809651
 20
105.00000309299786
 11
763.50000525809651
 21
45.000000000000085
  0
LINE
  8
_f-0_
  6
CONTINUOUS
 62
    7
 10
589.4999879373089
 20
105.00000309299786
 11
589.4999879373089
 21
45.000000000000085
  0
LINE
  8
_f-0_
  6
DASHED1
 62
    4
 10
111.00000061859978
 20
70.799999752560282
 11
582.00000030930005
 21
70.799999752560282
  0
LINE
  8
_f-0_
  6
DASHED1
 62
    4
 10
607.50001020689297
 20
85.499994432604112
 11
754.49997556531775
 21
85.499994432604112
  0
LINE
  8
_f-0_
  6
DASHED1
 62
    4
 10
1006.4999904117071
 20
85.499994432604112
 11
776.99997556531775
 21
85.499994432604112
  0
LINE
  8
_f-0_
  6
DASHED1
 62
    4
 10
1093.979221962594
 20
85.774494892842156
 11
1025.2500151556892
 21
85.774494892842156
  0
LINE
  8
_f-0_
  6
DASHED1
 62
    4
 10
1114.020734116838
 20
85.774494892842156
 11
1162.4999854629104
 21
85.499994432604112
  0
TEXT
  8
_f-0_
 62
    7
 10
608.77498595779036
 20
86.974500707677976
 40
12
 41
1
 50
0
  1
項目
  0
TEXT
  8
_f-0_
 62
    7
 10
776.40000822737431
 20
86.974500707677976
 40
12
 41
1
 50
0
  1
図面名称
  0
TEXT
  8
_f-0_
 62
    7
 10
1115.8353736465046
 20
85.774494892842156
 40
12
 41
1
 50
0
  1
NO
  0
LINE
  8
_f-0_
  6
CONTINUOUS
 62
    7
 10
135.30000006186017
 20
74.399998639081062
 11
173.99999969070049
 21
74.399998639081062
  0
LINE
  8
_f-0_
  6
CONTINUOUS
 62
    7
 10
138.30000068045979
 20
77.399999257680633
 11
170.99999907210096
 21
77.399999257680633
  0
LINE
  8
_f-0_
  6
CONTINUOUS
 62
    7
 10
135.30000006186017
 20
90.299999133960711
 11
135.30000006186017
 21
74.399998639081062
  0
LINE
  8
_f-0_
  6
CONTINUOUS
 62
    7
 10
138.30000068045979
 20
87.299998515361139
 11
138.30000068045979
 21
77.399999257680633
  0
LINE
  8
_f-0_
  6
CONTINUOUS
 62
    7
 10
173.99999969070049
 20
87.299998515361139
 11
138.30000068045979
 21
87.299998515361139
  0
LINE
  8
_f-0_
  6
CONTINUOUS
 62
    7
 10
173.99999969070049
 20
90.299999133960711
 11
135.30000006186017
 21
90.299999133960711
  0
LINE
  8
_f-0_
  6
CONTINUOUS
 62
    7
 10
149.39999647398275
 20
80.850003216717781
 11
149.39999647398275
 21
83.849994556323992
  0
LINE
  8
_f-0_
  6
CONTINUOUS
 62
    7
 10
149.39999647398275
 20
83.849994556323992
 11
173.99999969070049
 21
83.849994556323992
  0
LINE
  8
_f-0_
  6
CONTINUOUS
 62
    7
 10
149.39999647398275
 20
80.850003216717781
 11
170.99999907210096
 21
80.850003216717781
  0
LINE
  8
_f-0_
  6
CONTINUOUS
 62
    7
 10
170.99999907210096
 20
77.399999257680633
 11
170.99999907210096
 21
80.850003216717781
  0
LINE
  8
_f-0_
  6
CONTINUOUS
 62
    7
 10
173.99999969070049
 20
74.399998639081062
 11
173.99999969070049
 21
83.849994556323992
  0
LINE
  8
_f-0_
  6
CONTINUOUS
 62
    7
 10
173.99999969070049
 20
90.299999133960711
 11
173.99999969070049
 21
87.299998515361139
  0
LINE
  8
_f-0_
  6
CONTINUOUS
 62
    7
 10
137.87142916351695
 20
87.728570032303935
 11
173.99999969070049
 21
87.728570032303935
  0
LINE
  8
_f-0_
  6
CONTINUOUS
 62
    7
 10
137.44285764657411
 20
88.157141549246731
 11
173.99999969070049
 21
88.157141549246731
  0
LINE
  8
_f-0_
  6
CONTINUOUS
 62
    7
 10
137.01428612963127
 20
88.585713066189527
 11
173.99999969070049
 21
88.585713066189527
  0
LINE
  8
_f-0_
  6
CONTINUOUS
 62
    7
 10
136.58571461268843
 20
89.014284583132323
 11
173.99999969070049
 21
89.014284583132323
  0
LINE
  8
_f-0_
  6
CONTINUOUS
 62
    7
 10
136.1571430957456
 20
89.442856100075119
 11
173.99999969070049
 21
89.442856100075119
  0
LINE
  8
_f-0_
  6
CONTINUOUS
 62
    7
 10
135.72857157880276
 20
89.871427617017915
 11
173.99999969070049
 21
89.871427617017915
  0
LINE
  8
_f-0_
  6
CONTINUOUS
 62
    7
 10
135.72857157880301
 20
89.871427617017915
 11
135.72857157880301
 21
74.828570156023858
  0
LINE
  8
_f-0_
  6
CONTINUOUS
 62
    7
 10
136.15714309574585
 20
89.442856100075119
 11
136.15714309574585
 21
75.257141672966654
  0
LINE
  8
_f-0_
  6
CONTINUOUS
 62
    7
 10
136.58571461268869
 20
89.014284583132323
 11
136.58571461268869
 21
75.68571318990945
  0
LINE
  8
_f-0_
  6
CONTINUOUS
 62
    7
 10
137.01428612963153
 20
88.585713066189527
 11
137.01428612963153
 21
76.114284706852246
  0
LINE
  8
_f-0_
  6
CONTINUOUS
 62
    7
 10
137.44285764657437
 20
88.157141549246731
 11
137.44285764657437
 21
76.542856223795042
  0
LINE
  8
_f-0_
  6
CONTINUOUS
 62
    7
 10
137.87142916351721
 20
87.728570032303935
 11
137.87142916351721
 21
76.971427740737838
  0
LINE
  8
_f-0_
  6
CONTINUOUS
 62
    7
 10
137.87142916351695
 20
76.971427740737838
 11
171.42857058904372
 21
76.971427740737838
  0
LINE
  8
_f-0_
  6
CONTINUOUS
 62
    7
 10
137.44285764657411
 20
76.542856223795042
 11
171.85714210598647
 21
76.542856223795042
  0
LINE
  8
_f-0_
  6
CONTINUOUS
 62
    7
 10
137.01428612963127
 20
76.114284706852246
 11
172.28571362292922
 21
76.114284706852246
  0
LINE
  8
_f-0_
  6
CONTINUOUS
 62
    7
 10
136.58571461268843
 20
75.68571318990945
 11
172.71428513987198
 21
75.68571318990945
  0
LINE
  8
_f-0_
  6
CONTINUOUS
 62
    7
 10
136.1571430957456
 20
75.257141672966654
 11
173.14285665681473
 21
75.257141672966654
  0
LINE
  8
_f-0_
  6
CONTINUOUS
 62
    7
 10
135.72857157880276
 20
74.828570156023858
 11
173.57142817375748
 21
74.828570156023858
  0
LINE
  8
_f-0_
  6
CONTINUOUS
 62
    7
 10
171.42857058904372
 20
81.278573408090097
 11
149.39999647398275
 21
81.278573408090097
  0
LINE
  8
_f-0_
  6
CONTINUOUS
 62
    7
 10
171.85714210598647
 20
81.707143599462412
 11
149.39999647398275
 21
81.707143599462412
  0
LINE
  8
_f-0_
  6
CONTINUOUS
 62
    7
 10
172.28571362292922
 20
82.135713790834728
 11
149.39999647398275
 21
82.135713790834728
  0
LINE
  8
_f-0_
  6
CONTINUOUS
 62
    7
 10
172.71428513987198
 20
82.564283982207044
 11
149.39999647398275
 21
82.564283982207044
  0
LINE
  8
_f-0_
  6
CONTINUOUS
 62
    7
 10
173.14285665681473
 20
82.99285417357936
 11
149.39999647398275
 21
82.99285417357936
  0
LINE
  8
_f-0_
  6
CONTINUOUS
 62
    7
 10
173.57142817375748
 20
83.421424364951676
 11
149.39999647398275
 21
83.421424364951676
  0
LINE
  8
_f-0_
  6
CONTINUOUS
 62
    7
 10
171.42857058904372
 20
76.971427740737838
 11
171.42857058904372
 21
81.278573408090097
  0
LINE
  8
_f-0_
  6
CONTINUOUS
 62
    7
 10
171.85714210598647
 20
76.542856223795042
 11
171.85714210598647
 21
81.707143599462412
  0
LINE
  8
_f-0_
  6
CONTINUOUS
 62
    7
 10
172.28571362292922
 20
76.114284706852246
 11
172.28571362292922
 21
82.135713790834728
  0
LINE
  8
_f-0_
  6
CONTINUOUS
 62
    7
 10
172.71428513987198
 20
75.68571318990945
 11
172.71428513987198
 21
82.564283982207044
  0
LINE
  8
_f-0_
  6
CONTINUOUS
 62
    7
 10
173.14285665681473
 20
75.257141672966654
 11
173.14285665681473
 21
82.99285417357936
  0
LINE
  8
_f-0_
  6
CONTINUOUS
 62
    7
 10
173.57142817375748
 20
74.828570156023858
 11
173.57142817375748
 21
83.421424364951676
  0
TEXT
  8
_f-0_
 62
    7
 10
1025.3259252891035
 20
87.124495635161608
 40
12
 41
1
 50
0
  1
スケール
  0
TEXT
  8
_f-0_
 62
    2
 10
217.1133885770233
 20
66.541647008947507
 40
24
 41
1
 50
0
  1
GADELIUS   K.K
  0
TEXT
  8
_f-0_
 62
    2
 10
432.27086154834666
 20
65.641649607065673
 40
24
 41
1
 50
0
  1
Elitfonster
  0
TEXT
  8
_f-0_
 62
    7
 10
660.67912987499369
 20
54.196036654101988
 40
12
 41
1
 50
0
  1
在来
  0
LINE
  8
_f-0_
  6
CONTINUOUS
 62
    3
 10
85.500000000000256
 20
45.000000000000085
 11
85.500000000000256
 21
845.99998886520814
  0
LINE
  8
_f-0_
  6
CONTINUOUS
 62
    3
 10
85.500000000000256
 20
845.99998886520814
 11
1174.5000250532826
 21
845.99998886520814
  0
LINE
  8
_0-7_ハッチ
  6
CONTINUOUS
 62
    7
 10
-773.21555326969678
 20
630.53537937708643
 11
-773.21555326969678
 21
751.50735268169342
  0
LINE
  8
_0-3_雑工事
  6
DASHED3
 62
    7
 10
496.29215374975064
 20
506.18332836846162
 11
440.29215374975041
 21
506.18332836846162
  0
LINE
  8
_0-2_造作工事
  6
CONTINUOUS
 62
    7
 10
497.29215374975058
 20
467.68335311244391
 11
497.29215374975058
 21
507.68335311244391
  0
LINE
  8
_0-6_
  6
CONTINUOUS
 62
    4
 10
820.2921595233463
 20
441.01606893592771
 11
810.29215127535224
 21
431.01606068793365
  0
LINE
  8
_0-6_
  6
CONTINUOUS
 62
    7
 10
497.29214859475445
 20
503.68332836846156
 11
497.29214859475445
 21
398.68332836846156
  0
LINE
  8
_0-6_
  6
CONTINUOUS
 62
    4
 10
804.29215952334653
 20
391.79408230000911
 11
788.68140559179892
 21
376.18332836846156
  0
LINE
  8
_0-6_
  6
CONTINUOUS
 62
    7
 10
503.29214859475439
 20
398.68332836846156
 11
503.29214859475439
 21
386.1833283684615
  0
LINE
  8
_0-6_
  6
CONTINUOUS
 62
    4
 10
527.29214859475439
 20
394.21878218060561
 11
509.2566947826104
 21
376.18332836846156
  0
TEXT
  8
_0-e_文字
 62
    4
 10
535.56417996570633
 20
318.19840478778758
 40
7.4999999999999574
 41
1.0000000000000049
 50
0
  1
(建築工事)
  0
TEXT
  8
_0-d_寸法
 62
    4
 10
359.20487960343689
 20
524.43712829013793
 40
9
 41
1
 50
90
  1
14
  0
TEXT
  8
_0-d_寸法
 62
    4
 10
359.56509662269792
 20
507.3868560451188
 40
9
 41
1
 50
90
  1
18
  0
TEXT
  8
_0-d_寸法
 62
    4
 10
359.19575168764067
 20
440.28227422577442
 40
9
 41
1
 50
90
  1
105
  0
SOLID
  8
_0-f_
  6
CONTINUOUS
 62
    7
 10
346.0702685983548
 20
511.86289393835148
 11
336.54526859835477
 21
509.3106778804451
 12
336.54526859835477
 22
514.41510999625802
 13
336.54526859835477
 23
514.41510999625802
  0
LINE
  8
_0-f_
  6
CONTINUOUS
 62
    7
 10
321.79224859475426
 20
511.86289393835148
 11
346.0702685983548
 21
511.86289393835148
  0
LINE
  8
_0-d_寸法
  6
CONTINUOUS
 62
    4
 10
361.29224859475431
 20
389.1833283684615
 11
361.29224859475431
 21
398.68332836846156
  0
LINE
  8
_0-d_寸法
  6
CONTINUOUS
 62
    4
 10
361.29214859475439
 20
494.68332836846156
 11
361.29214859475439
 21
499.45332835069189
  0
LINE
  8
_0-d_寸法
  6
CONTINUOUS
 62
    4
 10
361.29214859475439
 20
389.68332836846162
 11
361.29214859475439
 21
494.68332836846156
  0
LINE
  8
_0-d_寸法
  6
CONTINUOUS
 62
    4
 10
361.29224859475431
 20
489.91332838623123
 11
361.29224859475431
 21
494.68332836846156
  0
LINE
  8
_0-d_寸法
  6
CONTINUOUS
 62
    4
 10
361.29224859475431
 20
503.68332836846156
 11
361.29224859475431
 21
521.68332836846162
  0
CIRCLE
  8
_0-d_寸法
  6
CONTINUOUS
 62
    4
 10
361.29224859475431
 20
503.68332836846156
 40
1.7254760742187489
  0
LINE
  8
_0-d_寸法
  6
CONTINUOUS
 62
    4
 10
361.29224859475431
 20
494.68332836846156
 11
361.29224859475431
 21
503.68332836846156
  0
LINE
  8
_0-d_寸法
  6
CONTINUOUS
 62
    4
 10
371.29214859475451
 20
503.68332836846156
 11
355.29224861710605
 21
503.68332836846156
  0
LINE
  8
_0-d_寸法
  6
CONTINUOUS
 62
    4
 10
361.29224859475431
 20
521.68332836846162
 11
361.29224859475431
 21
535.68332836846162
  0
CIRCLE
  8
_0-d_寸法
  6
CONTINUOUS
 62
    4
 10
361.29224859475431
 20
521.68332836846162
 40
1.7254760742187489
  0
LINE
  8
_0-d_寸法
  6
CONTINUOUS
 62
    4
 10
361.29224859475431
 20
535.68332836846162
 11
361.29224859475431
 21
540.45332835069189
  0
CIRCLE
  8
_0-d_寸法
  6
CONTINUOUS
 62
    4
 10
361.29224859475431
 20
535.68332836846162
 40
1.7254760742187489
  0
LINE
  8
_0-d_寸法
  6
CONTINUOUS
 62
    4
 10
371.29214859475451
 20
535.68332836846162
 11
355.29224861710605
 21
535.68332836846162
  0
LINE
  8
_0-d_寸法
  6
CONTINUOUS
 62
    4
 10
371.29214859475451
 20
521.68332836846162
 11
355.29224861710605
 21
521.68332836846162
  0
TEXT
  8
_0-d_寸法
 62
    4
 10
358.41860437946434
 20
383.76862105308174
 40
9
 41
1
 50
90
  1
12.5
  0
CIRCLE
  8
_0-d_寸法
  6
CONTINUOUS
 62
    4
 10
361.29224859475431
 20
398.68332836846156
 40
1.7254760742187489
  0
LINE
  8
_0-d_寸法
  6
CONTINUOUS
 62
    4
 10
371.29214859475451
 20
398.68332836846156
 11
355.29214861710614
 21
398.68332836846156
  0
CIRCLE
  8
_0-d_寸法
  6
CONTINUOUS
 62
    4
 10
361.29214859475439
 20
398.68332836846156
 40
1.7254760742187489
  0
CIRCLE
  8
_0-d_寸法
  6
CONTINUOUS
 62
    4
 10
361.29224859475431
 20
386.1833283684615
 40
1.7254760742187489
  0
LINE
  8
_0-d_寸法
  6
CONTINUOUS
 62
    4
 10
371.29214859475451
 20
386.1833283684615
 11
355.29224861710605
 21
386.1833283684615
  0
LINE
  8
_0-d_寸法
  6
CONTINUOUS
 62
    4
 10
371.29214859475451
 20
376.18332836846156
 11
355.29224861710605
 21
376.18332836846156
  0
CIRCLE
  8
_0-d_寸法
  6
CONTINUOUS
 62
    4
 10
361.29224859475431
 20
376.18332836846156
 40
1.7254760742187489
  0
TEXT
  8
_0-e_文字
 62
    7
 10
271.36036712451261
 20
507.79733345075977
 40
9
 41
1
 50
0
  1
通気層t＝18
  0
TEXT
  8
_0-e_文字
 62
    4
 10
284.06868254319494
 20
499.39963060710221
 40
7.4999999999999574
 41
1.0000000000000042
 50
0
  1
(建築工事)
  0
SOLID
  8
_0-f_
  6
CONTINUOUS
 62
    7
 10
346.0702685983548
 20
529.14094381292909
 11
336.54526859835477
 21
526.58872775502266
 12
336.54526859835477
 22
531.69315987083553
 13
336.54526859835477
 23
531.69315987083553
  0
LINE
  8
_0-f_
  6
CONTINUOUS
 62
    7
 10
321.79224859475426
 20
529.14094381292909
 11
346.0702685983548
 21
529.14094381292909
  0
TEXT
  8
_0-e_文字
 62
    7
 10
270.45736989578143
 20
525.90791079929181
 40
9
 41
1
 50
0
  1
外壁材t＝14
  0
TEXT
  8
_0-e_文字
 62
    4
 10
282.79220482759519
 20
518.89773800781995
 40
7.5000000000000853
 41
0.9999999999999872
 50
0
  1
(建築工事)
  0
TEXT
  8
_0-e_文字
 62
    7
 10
286.3162037019427
 20
561.05967518202749
 40
9
 41
1.0000000000000009
 50
0
  1
防水シート
  0
TEXT
  8
_0-e_文字
 62
    4
 10
298.80892036108821
 20
553.00417630467109
 40
7.5000000000000853
 41
0.9999999999999887
 50
0
  1
(建築工事)
  0
SOLID
  8
_0-f_
  6
CONTINUOUS
 62
    7
 10
399.72883779372989
 20
505.18332836846156
 11
397.01077627937599
 21
514.66233535286779
 12
392.63542398104755
 22
512.03335846243056
 13
392.63542398104755
 23
512.03335846243056
  0
LINE
  8
_0-f_
  6
CONTINUOUS
 62
    7
 10
339.84031850584563
 20
565.17682740475107
 11
365.0915002258871
 21
565.17682740475107
  0
LINE
  8
_0-f_
  6
CONTINUOUS
 62
    7
 10
365.0915002258871
 20
565.17682740475107
 11
399.72883779372989
 21
505.18332836846156
  0
SOLID
  8
_0-f_
  6
CONTINUOUS
 62
    7
 10
346.0702685983548
 20
393.21888789504158
 11
336.54526859835477
 21
390.6666718371352
 12
336.54526859835477
 22
395.77110395294801
 13
336.54526859835477
 23
395.77110395294801
  0
LINE
  8
_0-f_
  6
CONTINUOUS
 62
    7
 10
321.79224859475426
 20
393.21888789504158
 11
346.0702685983548
 21
393.21888789504158
  0
TEXT
  8
_0-e_文字
 62
    7
 10
281.95831054344831
 20
388.29277836873882
 40
9
 41
1
 50
0
  1
PBt=12.5
  0
TEXT
  8
_0-e_文字
 62
    4
 10
283.76496770126499
 20
380.09447831638124
 40
7.4999999999999574
 41
1.0000000000000031
 50
0
  1
(建築工事)
  0
SOLID
  8
_0-f_
  6
CONTINUOUS
 62
    7
 10
395.69315067320844
 20
397.19688462687895
 11
393.14093461530189
 21
387.67188462687898
 12
388.72036673111478
 22
390.22410068478541
 13
388.72036673111478
 23
390.22410068478541
  0
LINE
  8
_0-f_
  6
CONTINUOUS
 62
    7
 10
368.74244006088418
 20
350.5168627816829
 11
395.69315067320844
 21
397.19688462687895
  0
LINE
  8
_0-f_
  6
CONTINUOUS
 62
    7
 10
350.72601028177411
 20
350.5168627816829
 11
368.74244006088418
 21
350.5168627816829
  0
TEXT
  8
_0-e_文字
 62
    7
 10
302.23370355211449
 20
346.23236394186915
 40
9
 41
1
 50
0
  1
気密シート
  0
TEXT
  8
_0-e_文字
 62
    4
 10
310.66034364244553
 20
337.23936375367958
 40
7.4999999999999574
 41
1.0000000000000031
 50
0
  1
(建築工事)
  0
TEXT
  8
_0-e_文字
 62
    7
 10
537.07607641870186
 20
356.03050131632415
 40
9
 41
1
 50
0
  1
内額縁
  0
LINE
  8
_0-f_
  6
CONTINUOUS
 62
    7
 10
536.47300374445808
 20
360.53835139476712
 11
513.67032178522959
 21
360.53835139476712
  0
LINE
  8
_0-f_
  6
CONTINUOUS
 62
    7
 10
513.67032178522959
 20
360.53835139476712
 11
504.58802374000021
 21
376.26933063139165
  0
TEXT
  8
_0-e_文字
 62
    7
 10
412.40955793276572
 20
347.53011825089243
 40
9
 41
1
 50
0
  1
断熱材
  0
TEXT
  8
_0-e_文字
 62
    4
 10
412.98576187319867
 20
339.59099530395093
 40
7.4999999999999574
 41
1.0000000000000027
 50
0
  1
(建築工事)
  0
LINE
  8
_0-f_
  6
CONTINUOUS
 62
    7
 10
441.45326414894083
 20
352.72762659600289
 11
455.67883071282643
 21
352.72762659600289
  0
LINE
  8
_0-f_
  6
CONTINUOUS
 62
    7
 10
455.67883071282643
 20
352.72762659600289
 11
487.51733607492082
 21
407.87352654946415
  0
SOLID
  8
_0-f_
  6
CONTINUOUS
 62
    7
 10
487.51733607492082
 20
407.87352654946415
 11
484.79927456056674
 21
398.39451956505786
 12
480.42392226223831
 22
401.02349645549521
 13
480.42392226223831
 23
401.02349645549521
  0
SOLID
  8
_0-f_
  6
CONTINUOUS
 62
    7
 10
504.58802374000021
 20
376.26933063139165
 11
511.56080768209381
 21
369.29654668929811
 12
507.1402397979067
 22
366.74433063139156
 13
507.1402397979067
 23
366.74433063139156
  0
TEXT
  8
_0-e_文字
 62
    7
 10
390.39673419202546
 20
406.09778858255959
 40
9
 41
1
 50
0
  1
105x105
  0
LINE
  8
_0-d_寸法
  6
CONTINUOUS
 62
    4
 10
361.29224859475431
 20
376.18332836846156
 11
361.29224859475431
 21
389.1833283684615
  0
LINE
  8
_0-d_寸法
  6
CONTINUOUS
 62
    4
 10
361.29224859475431
 20
370.18332836846156
 11
361.29224859475431
 21
376.18332836846156
  0
TEXT
  8
_0-d_寸法
 62
    4
 10
358.22335534598324
 20
366.38377811595228
 40
9
 41
1
 50
90
  1
10
  0
LINE
  8
_0-6_
  6
CONTINUOUS
 62
    7
 10
487.29214859475439
 20
503.68332836846156
 11
487.29214859475439
 21
398.68332836846156
  0
LINE
  8
_0-6_
  6
CONTINUOUS
 62
    4
 10
488.27044337569117
 20
502.70503358752489
 11
487.29214859475439
 21
501.72673880658806
  0
LINE
  8
_0-6_
  6
CONTINUOUS
 62
    4
 10
487.56333659450468
 20
503.41214036871139
 11
487.29214859475439
 21
503.14095236896122
  0
LINE
  8
_0-6_
  6
CONTINUOUS
 62
    4
 10
487.68581400533878
 20
495.04933640530703
 11
487.29214859475439
 21
494.65567099472258
  0
LINE
  8
_0-6_
  6
CONTINUOUS
 62
    4
 10
489.55873544631106
 20
501.16489853339863
 11
487.29214859475439
 21
498.8983116818419
  0
LINE
  8
_0-6_
  6
CONTINUOUS
 62
    4
 10
488.88884481150279
 20
501.90922146096335
 11
487.29214859475439
 21
500.3125252442149
  0
LINE
  8
_0-6_
  6
CONTINUOUS
 62
    4
 10
491.90559240612032
 20
500.68332836846156
 11
487.29214859475439
 21
496.06988455709575
  0
LINE
  8
_0-6_
  6
CONTINUOUS
 62
    4
 10
497.29215684274857
 20
495.26970997460393
 11
491.87853844889082
 21
500.68332836846156
  0
LINE
  8
_0-6_
  6
CONTINUOUS
 62
    4
 10
490.49137884374716
 20
500.68332836846156
 11
487.29214859475439
 21
497.48409811946874
  0
LINE
  8
_0-6_
  6
CONTINUOUS
 62
    4
 10
493.31980596849337
 20
500.68332836846156
 11
487.68581400533878
 21
495.04933640530703
  0
LINE
  8
_0-6_
  6
CONTINUOUS
 62
    4
 10
497.29215684274857
 20
496.68392353697692
 11
493.29275201126393
 21
500.68332836846156
  0
LINE
  8
_0-6_
  6
CONTINUOUS
 62
    4
 10
497.29215684274857
 20
498.09813709935008
 11
494.70696557363704
 21
500.68332836846156
  0
LINE
  8
_0-6_
  6
CONTINUOUS
 62
    4
 10
497.29215684274857
 20
499.51235066172325
 11
496.20666386538221
 21
500.59784363908943
  0
LINE
  8
_0-6_
  6
CONTINUOUS
 62
    4
 10
497.29215684274857
 20
500.92656422409624
 11
496.91377064656888
 21
501.30495042027593
  0
LINE
  8
_0-6_
  6
CONTINUOUS
 62
    4
 10
494.73401953086648
 20
500.68332836846156
 11
487.29214859475439
 21
493.24145743234942
  0
LINE
  8
_0-6_
  6
CONTINUOUS
 62
    4
 10
496.14823309323964
 20
500.68332836846156
 11
487.29214859475439
 21
491.82724386997643
  0
LINE
  8
_0-6_
  6
CONTINUOUS
 62
    4
 10
493.80747063702529
 20
491.68332836846156
 11
487.29214859475439
 21
498.19865041073251
  0
LINE
  8
_0-6_
  6
CONTINUOUS
 62
    4
 10
492.39325707465247
 20
491.68332836846156
 11
487.29214859475439
 21
496.78443684835952
  0
LINE
  8
_0-6_
  6
CONTINUOUS
 62
    4
 10
496.6358977617715
 20
491.68332836846156
 11
487.29214859475439
 21
501.02707753547867
  0
LINE
  8
_0-6_
  6
CONTINUOUS
 62
    4
 10
497.29215684274857
 20
498.99882499322433
 11
489.9766602179858
 21
491.68332836846156
  0
LINE
  8
_0-6_
  6
CONTINUOUS
 62
    4
 10
497.29215684274857
 20
497.58461143085134
 11
491.39087378035896
 21
491.68332836846156
  0
LINE
  8
_0-6_
  6
CONTINUOUS
 62
    4
 10
497.29215684274857
 20
496.17039786847818
 11
492.80508734273212
 21
491.68332836846156
  0
LINE
  8
_0-6_
  6
CONTINUOUS
 62
    4
 10
497.29214859475439
 20
493.85550466022505
 11
490.46432488651783
 21
500.68332836846156
  0
LINE
  8
_0-6_
  6
CONTINUOUS
 62
    4
 10
497.29214859475439
 20
492.44129109785189
 11
487.29214859475439
 21
502.44129109785183
  0
LINE
  8
_0-6_
  6
CONTINUOUS
 62
    4
 10
488.15061638753343
 20
491.68332836846156
 11
487.29214859475439
 21
492.54179616124054
  0
LINE
  8
_0-6_
  6
CONTINUOUS
 62
    4
 10
489.56482994990643
 20
491.68332836846156
 11
487.29214859475439
 21
493.95600972361353
  0
LINE
  8
_0-6_
  6
CONTINUOUS
 62
    4
 10
490.97904351227947
 20
491.68332836846156
 11
487.29214859475439
 21
495.37022328598653
  0
LINE
  8
_0-6_
  6
CONTINUOUS
 62
    4
 10
495.22168419939845
 20
491.68332836846156
 11
487.29214859475439
 21
499.61286397310568
  0
LINE
  8
_0-6_
  6
CONTINUOUS
 62
    4
 10
497.29214859475445
 20
491.9277489333644
 11
497.04772802985144
 21
491.68332836846156
  0
LINE
  8
_0-6_
  6
CONTINUOUS
 62
    4
 10
497.29215684274845
 20
438.89474859236805
 11
487.29214859475439
 21
428.89474034437399
  0
LINE
  8
_0-6_
  6
CONTINUOUS
 62
    4
 10
497.29215684274845
 20
436.77342824880839
 11
487.29214859475439
 21
426.77342000081433
  0
LINE
  8
_0-6_
  6
CONTINUOUS
 62
    4
 10
497.29215684274845
 20
434.65210790524873
 11
487.29214859475439
 21
424.65209965725455
  0
LINE
  8
_0-6_
  6
CONTINUOUS
 62
    4
 10
497.29215684274845
 20
432.53078756168918
 11
487.29214859475439
 21
422.53077931369501
  0
LINE
  8
_0-6_
  6
CONTINUOUS
 62
    4
 10
497.29215684274845
 20
430.40946721812958
 11
487.29214859475439
 21
420.40945897013546
  0
LINE
  8
_0-6_
  6
CONTINUOUS
 62
    4
 10
497.29215684274845
 20
428.28814687456992
 11
487.29214859475439
 21
418.28813862657586
  0
LINE
  8
_0-6_
  6
CONTINUOUS
 62
    4
 10
487.29214859475439
 20
436.77342824880839
 11
497.29214859475439
 21
426.77342824880839
  0
LINE
  8
_0-6_
  6
CONTINUOUS
 62
    4
 10
487.29214859475439
 20
434.65210790524873
 11
497.29214859475439
 21
424.65210790524861
  0
LINE
  8
_0-6_
  6
CONTINUOUS
 62
    4
 10
487.29214859475439
 20
432.53078756168918
 11
497.29214859475439
 21
422.53078756168895
  0
LINE
  8
_0-6_
  6
CONTINUOUS
 62
    4
 10
487.29214859475439
 20
430.40946721812958
 11
497.29214859475439
 21
420.40946721812952
  0
LINE
  8
_0-6_
  6
CONTINUOUS
 62
    4
 10
487.29214859475439
 20
428.28814687456997
 11
497.29214859475439
 21
418.28814687456997
  0
LINE
  8
_0-6_
  6
CONTINUOUS
 62
    4
 10
497.29215684274845
 20
426.21209073028132
 11
487.29214859475439
 21
416.21208248228726
  0
LINE
  8
_0-6_
  6
CONTINUOUS
 62
    4
 10
487.29214859475439
 20
426.21209073028132
 11
497.29215684274845
 21
416.21208248228726
  0
LINE
  8
_0-6_
  6
CONTINUOUS
 62
    4
 10
487.29214859475439
 20
424.09077038672166
 11
497.29215684274845
 21
414.09076213872754
  0
LINE
  8
_0-6_
  6
CONTINUOUS
 62
    4
 10
497.29215684274845
 20
424.09077038672166
 11
487.29214859475439
 21
414.0907621387276
  0
LINE
  8
_0-6_
  6
CONTINUOUS
 62
    4
 10
497.29214859475439
 20
493.34196249573773
 11
495.63351446747834
 21
491.68332836846156
  0
LINE
  8
_0-6_
  6
CONTINUOUS
 62
    4
 10
497.29214859475439
 20
494.7561760581109
 11
494.21930090510523
 21
491.68332836846156
  0
LINE
  8
_0-6_
  6
CONTINUOUS
 62
    7
 10
529.01785266227557
 20
459.54795097709257
 11
529.00222915371171
 21
459.53739837028576
  0
LINE
  8
_0-6_
  6
CONTINUOUS
 62
    7
 10
382.29214859475439
 20
503.68332836846156
 11
382.29214859475439
 21
398.68332836846156
  0
LINE
  8
_0-6_
  6
CONTINUOUS
 62
    4
 10
382.29214859475439
 20
398.68332836846156
 11
487.29214859475439
 21
503.68332836846156
  0
LINE
  8
_0-6_
  6
CONTINUOUS
 62
    4
 10
487.29214859475439
 20
398.68332836846156
 11
382.29214859475439
 21
503.68332836846156
  0
LINE
  8
_0-6_
  6
CONTINUOUS
 62
    4
 10
496.94673250633144
 20
484.85717158163084
 11
490.46599180792367
 21
491.33791228003872
  0
LINE
  8
_0-6_
  6
CONTINUOUS
 62
    4
 10
497.24189606306021
 20
485.97622158727518
 11
491.58504181356807
 21
491.63307583676749
  0
LINE
  8
_0-6_
  6
CONTINUOUS
 62
    4
 10
497.24189606306021
 20
487.3904351496484
 11
492.99925537594129
 21
491.63307583676738
  0
LINE
  8
_0-6_
  6
CONTINUOUS
 62
    4
 10
495.82768250068722
 20
483.14779446252885
 11
488.75661468882174
 21
490.21886227439433
  0
LINE
  8
_0-6_
  6
CONTINUOUS
 62
    4
 10
496.46335699107874
 20
483.92633353451043
 11
489.53515376080333
 21
490.85453676478591
  0
LINE
  8
_0-6_
  6
CONTINUOUS
 62
    4
 10
495.04914342870563
 20
482.51211997213738
 11
488.12094019843016
 21
489.44032320241286
  0
LINE
  8
_0-6_
  6
CONTINUOUS
 62
    4
 10
494.11830538158517
 20
491.33791228003861
 11
487.63756468317735
 21
484.85717158163078
  0
LINE
  8
_0-6_
  6
CONTINUOUS
 62
    4
 10
492.99925537594089
 20
491.63307583676749
 11
487.34240112644858
 21
485.97622158727501
  0
LINE
  8
_0-6_
  6
CONTINUOUS
 62
    4
 10
491.58504181356773
 20
491.63307583676738
 11
487.34240112644858
 21
487.39043514964828
  0
LINE
  8
_0-6_
  6
CONTINUOUS
 62
    4
 10
495.82768250068716
 20
490.21886227439433
 11
488.75661468882174
 21
483.14779446252885
  0
LINE
  8
_0-6_
  6
CONTINUOUS
 62
    4
 10
495.04914342870563
 20
490.85453676478591
 11
488.12094019843016
 21
483.92633353451038
  0
LINE
  8
_0-6_
  6
CONTINUOUS
 62
    4
 10
496.46335699107874
 20
489.44032320241274
 11
489.53515376080327
 21
482.51211997213727
  0
LINE
  8
_0-6_
  6
CONTINUOUS
 62
    4
 10
496.94673250633144
 20
488.5094851552924
 11
490.46599180792367
 21
482.02874445688451
  0
LINE
  8
_0-6_
  6
CONTINUOUS
 62
    4
 10
497.24189606306021
 20
487.390435149648
 11
491.58504181356807
 21
481.73358090015574
  0
LINE
  8
_0-6_
  6
CONTINUOUS
 62
    4
 10
497.24189606306021
 20
485.97622158727484
 11
492.99925537594129
 21
481.73358090015586
  0
LINE
  8
_0-6_
  6
CONTINUOUS
 62
    4
 10
494.11830538158529
 20
482.02874445688462
 11
487.63756468317735
 21
488.50948515529251
  0
LINE
  8
_0-6_
  6
CONTINUOUS
 62
    4
 10
491.5850418135679
 20
481.73358090015574
 11
487.34240112644858
 21
485.97622158727506
  0
LINE
  8
_0-6_
  6
CONTINUOUS
 62
    4
 10
492.99925537594106
 20
481.73358090015574
 11
487.34240112644858
 21
487.39043514964817
  0
LINE
  8
ADD_LINE
  6
DOT
 62
    9
 10
492.29214859475439
 20
481.68332836846162
 11
492.29214859475439
 21
491.68332836846156
  0
LINE
  8
ADD_LINE
  6
DOT
 62
    9
 10
497.29214859475445
 20
486.68332836846167
 11
487.29214859475439
 21
486.68332836846162
  0
LINE
  8
_0-6_
  6
CONTINUOUS
 62
    4
 10
497.29214859475439
 20
400.68332836846162
 11
497.29214859475439
 21
398.68332836846156
  0
LINE
  8
_0-6_
  6
CONTINUOUS
 62
    4
 10
497.29215684274845
 20
421.969450043162
 11
487.29214859475439
 21
411.96944179516794
  0
LINE
  8
_0-6_
  6
CONTINUOUS
 62
    4
 10
497.29215684274845
 20
419.8481296996024
 11
487.29214859475439
 21
409.84812145160822
  0
LINE
  8
_0-6_
  6
CONTINUOUS
 62
    4
 10
497.29215684274845
 20
417.72680935604274
 11
487.29214859475439
 21
407.72680110804862
  0
LINE
  8
_0-6_
  6
CONTINUOUS
 62
    4
 10
497.29215684274845
 20
415.60548901248319
 11
487.29214859475439
 21
405.60548076448913
  0
LINE
  8
_0-6_
  6
CONTINUOUS
 62
    4
 10
497.29215684274845
 20
413.48416866892353
 11
487.29214859475439
 21
403.48416042092964
  0
LINE
  8
_0-6_
  6
CONTINUOUS
 62
    4
 10
487.29214859475439
 20
421.969450043162
 11
497.29214859475439
 21
411.96945004316194
  0
LINE
  8
_0-6_
  6
CONTINUOUS
 62
    4
 10
487.29214859475439
 20
419.8481296996024
 11
497.29214859475439
 21
409.84812969960228
  0
LINE
  8
_0-6_
  6
CONTINUOUS
 62
    4
 10
487.29214859475439
 20
417.72680935604274
 11
497.29214859475439
 21
407.72680935604262
  0
LINE
  8
_0-6_
  6
CONTINUOUS
 62
    4
 10
487.29214859475439
 20
415.60548901248319
 11
497.29214859475439
 21
405.60548901248325
  0
LINE
  8
_0-6_
  6
CONTINUOUS
 62
    4
 10
487.29214859475439
 20
413.48416866892364
 11
497.29214859475439
 21
403.48416866892364
  0
LINE
  8
_0-6_
  6
CONTINUOUS
 62
    4
 10
497.29215684274845
 20
411.36284832536398
 11
487.29214859475439
 21
401.36284007737015
  0
LINE
  8
_0-6_
  6
CONTINUOUS
 62
    4
 10
487.29214859475439
 20
411.3628483253641
 11
497.29214859475439
 21
401.36284832536421
  0
LINE
  8
_0-6_
  6
CONTINUOUS
 62
    4
 10
497.29215684274845
 20
409.24152798180444
 11
487.29214859475439
 21
399.24151973381061
  0
LINE
  8
_0-6_
  6
CONTINUOUS
 62
    4
 10
487.29214859475439
 20
409.24152798180455
 11
497.29214859475439
 21
399.24152798180461
  0
LINE
  8
_0-6_
  6
CONTINUOUS
 62
    4
 10
487.29214859475439
 20
400.75624660756642
 11
489.36506683385926
 21
398.68332836846156
  0
LINE
  8
_0-6_
  6
CONTINUOUS
 62
    4
 10
497.29215684274845
 20
400.75624660756637
 11
495.2192386036437
 21
398.68332836846156
  0
LINE
  8
_0-6_
  6
CONTINUOUS
 62
    4
 10
497.29215684274845
 20
407.12020763824489
 11
488.85527757296495
 21
398.68332836846156
  0
LINE
  8
_0-6_
  6
CONTINUOUS
 62
    4
 10
487.29214859475439
 20
407.12020763824506
 11
495.72902786453784
 21
398.68332836846156
  0
LINE
  8
_0-6_
  6
CONTINUOUS
 62
    4
 10
497.29215684274845
 20
404.9988872946854
 11
490.97659791652455
 21
398.68332836846156
  0
LINE
  8
_0-6_
  6
CONTINUOUS
 62
    4
 10
487.29214859475439
 20
404.99888729468546
 11
493.60770752097835
 21
398.68332836846156
  0
LINE
  8
_0-6_
  6
CONTINUOUS
 62
    4
 10
497.29215684274845
 20
402.8775669511258
 11
493.09791826008416
 21
398.68332836846156
  0
LINE
  8
_0-6_
  6
CONTINUOUS
 62
    4
 10
487.29214859475439
 20
402.87756695112603
 11
491.48638717741886
 21
398.68332836846156
  0
LINE
  8
_0-6_
  6
CONTINUOUS
 62
    7
 10
487.29214859475439
 20
503.68332836846156
 11
371.29214859475451
 21
503.68332836846156
  0
LINE
  8
_0-6_
  6
CONTINUOUS
 62
    7
 10
487.29214859475439
 20
398.68332836846156
 11
382.29214859475439
 21
398.68332836846156
  0
LINE
  8
_0-6_
  6
CONTINUOUS
 62
    4
 10
527.29214859475439
 20
387.14771436874025
 11
516.32776259447587
 21
376.18332836846156
  0
LINE
  8
_0-6_
  6
CONTINUOUS
 62
    4
 10
527.29214859475439
 20
380.07664655687466
 11
523.3988304063414
 21
376.18332836846156
  0
LINE
  8
_0-6_
  6
CONTINUOUS
 62
    7
 10
503.29214859475439
 20
386.1833283684615
 11
371.29214859475451
 21
386.1833283684615
  0
LINE
  8
_0-6_
  6
CONTINUOUS
 62
    4
 10
498.04349134701391
 20
386.1833283684615
 11
497.29214859475445
 21
385.43198561620204
  0
LINE
  8
_0-6_
  6
CONTINUOUS
 62
    7
 10
503.29214859475439
 20
398.68332836846156
 11
371.29214859475451
 21
398.68332836846156
  0
LINE
  8
_0-6_
  6
CONTINUOUS
 62
    4
 10
507.29214859475439
 20
533.96887748670065
 11
507.00659329051973
 21
533.68332218246599
  0
LINE
  8
_0-6_
  6
CONTINUOUS
 62
    4
 10
497.29215684274857
 20
500.4130385555975
 11
488.5624466556128
 21
491.68332836846156
  0
LINE
  8
_0-3_雑工事
  6
CONTINUOUS
 62
    7
 10
487.29214859475439
 20
481.68332836846162
 11
497.29214859475439
 21
481.68332836846162
  0
LINE
  8
_0-3_雑工事
  6
CONTINUOUS
 62
    7
 10
497.29214859475439
 20
491.68332836846156
 11
497.29214859475439
 21
501.6833283684615
  0
LINE
  8
_0-3_雑工事
  6
CONTINUOUS
 62
    7
 10
497.29214859475439
 20
501.6833283684615
 11
496.29214859475439
 21
500.68332836846156
  0
LINE
  8
_0-3_雑工事
  6
CONTINUOUS
 62
    7
 10
496.29214859475439
 20
500.68332836846156
 11
489.99214859475455
 21
500.68332836846156
  0
LINE
  8
_0-3_雑工事
  6
CONTINUOUS
 62
    7
 10
489.99214859475455
 20
500.68332836846156
 11
487.29214859475439
 21
503.68332836846156
  0
LINE
  8
_0-3_雑工事
  6
CONTINUOUS
 62
    7
 10
487.29214859475439
 20
503.68332836846156
 11
487.29214859475439
 21
491.68332836846156
  0
LINE
  8
_0-3_雑工事
  6
CONTINUOUS
 62
    7
 10
487.29214859475439
 20
491.68332836846156
 11
497.29214859475439
 21
491.68332836846156
  0
LINE
  8
_0-2_造作工事
  6
CONTINUOUS
 62
    7
 10
487.29214859475439
 20
491.68332836846156
 11
487.29214859475439
 21
411.68332836846167
  0
LINE
  8
_0-1_躯体
  6
CONTINUOUS
 62
    7
 10
382.29214859475439
 20
503.68332836846156
 11
382.29214859475439
 21
398.68332836846156
  0
LINE
  8
_0-1_躯体
  6
CONTINUOUS
 62
    7
 10
499.29214859475439
 20
398.68332836846156
 11
371.29214859475451
 21
398.68332836846156
  0
LINE
  8
_0-1_躯体
  6
CONTINUOUS
 62
    4
 10
382.29214859475439
 20
398.68332836846156
 11
487.29214859475439
 21
503.68332836846156
  0
LINE
  8
_0-1_躯体
  6
CONTINUOUS
 62
    4
 10
487.29214859475439
 20
398.68332836846156
 11
382.29214859475439
 21
503.68332836846156
  0
LINE
  8
_0-1_躯体
  6
CONTINUOUS
 62
    7
 10
457.56753792399695
 20
521.68332836846162
 11
371.29214859475451
 21
521.68332836846162
  0
LINE
  8
_0-3_雑工事
  6
CENTER1
 62
    7
 10
487.29214859475439
 20
502.18332836846156
 11
371.29214859475451
 21
502.18332836846156
  0
CIRCLE
  8
_0-3_雑工事
  6
CONTINUOUS
 62
    7
 10
492.29214859475439
 20
486.68332836846162
 40
4.9999999999999929
  0
LINE
  8
_0-1_躯体
  6
CONTINUOUS
 62
    7
 10
487.29214859475439
 20
503.68332836846156
 11
487.29214859475439
 21
398.68332836846156
  0
LINE
  8
_0-1_躯体
  6
CONTINUOUS
 62
    7
 10
487.29214859475439
 20
503.68332836846156
 11
371.29214859475451
 21
503.68332836846156
  0
ARC
  8
_0-2_造作工事
  6
CONTINUOUS
 62
    7
 10
525.29214859475439
 20
378.18332836846162
 40
2
 50
270
 51
0
  0
LINE
  8
_0-1_躯体
  6
CONTINUOUS
 62
    7
 10
503.29214859475439
 20
398.68332836846156
 11
503.29214859475439
 21
386.1833283684615
  0
LINE
  8
_0-1_躯体
  6
CONTINUOUS
 62
    7
 10
503.29214859475439
 20
386.1833283684615
 11
371.29214859475451
 21
386.1833283684615
  0
LINE
  8
_0-2_造作工事
  6
CONTINUOUS
 62
    7
 10
497.29214859475445
 20
386.1833283684615
 11
497.29214859475445
 21
376.18332836846156
  0
LINE
  8
_0-2_造作工事
  6
CONTINUOUS
 62
    7
 10
525.29214859475439
 20
376.18332836846156
 11
497.29214859475445
 21
376.18332836846156
  0
LINE
  8
_0-2_造作工事
  6
CONTINUOUS
 62
    7
 10
472.29214859475439
 20
503.68332836846156
 11
497.29214859475445
 21
503.68332836846156
  0
LINE
  8
_0-6_
  6
CONTINUOUS
 62
    4
 10
503.47244827913084
 20
398.68335311244391
 11
503.29214859475439
 21
398.50305342806746
  0
LINE
  8
_0-6_
  6
CONTINUOUS
 62
    4
 10
503.47244827913096
 20
398.68335311244391
 11
503.29214859475439
 21
398.50305342806735
  0
LINE
  8
_0-3_雑工事
  6
CONTINUOUS
 62
    7
 10
820.2921595233463
 20
481.68332836846162
 11
810.29215952334653
 21
481.68332836846162
  0
LINE
  8
_0-3_雑工事
  6
CONTINUOUS
 62
    7
 10
810.29215952334653
 20
491.68332836846156
 11
810.29215952334653
 21
501.6833283684615
  0
LINE
  8
_0-3_雑工事
  6
CONTINUOUS
 62
    7
 10
810.29215952334653
 20
501.6833283684615
 11
811.2921595233463
 21
500.68332836846156
  0
LINE
  8
_0-3_雑工事
  6
CONTINUOUS
 62
    7
 10
811.2921595233463
 20
500.68332836846156
 11
817.59215952334637
 21
500.68332836846156
  0
LINE
  8
_0-3_雑工事
  6
CONTINUOUS
 62
    7
 10
817.59215952334637
 20
500.68332836846156
 11
820.2921595233463
 21
503.68332836846156
  0
LINE
  8
_0-3_雑工事
  6
CONTINUOUS
 62
    7
 10
820.2921595233463
 20
503.68332836846156
 11
820.2921595233463
 21
491.68332836846156
  0
LINE
  8
_0-3_雑工事
  6
CONTINUOUS
 62
    7
 10
820.2921595233463
 20
491.68332836846156
 11
810.29215952334653
 21
491.68332836846156
  0
LINE
  8
_0-2_造作工事
  6
CONTINUOUS
 62
    7
 10
820.2921595233463
 20
491.68332836846156
 11
820.2921595233463
 21
411.68332836846167
  0
LINE
  8
_0-1_躯体
  6
CONTINUOUS
 62
    7
 10
925.2921595233463
 20
503.68332836846156
 11
925.2921595233463
 21
398.68332836846156
  0
LINE
  8
_0-1_躯体
  6
CONTINUOUS
 62
    4
 10
925.2921595233463
 20
398.68332836846156
 11
820.2921595233463
 21
503.68332836846156
  0
LINE
  8
_0-1_躯体
  6
CONTINUOUS
 62
    4
 10
820.2921595233463
 20
398.68332836846156
 11
925.2921595233463
 21
503.68332836846156
  0
LINE
  8
_0-1_躯体
  6
CONTINUOUS
 62
    7
 10
850.01677019410374
 20
521.68332836846162
 11
936.29215952334619
 21
521.68332836846162
  0
LINE
  8
_0-3_雑工事
  6
CENTER1
 62
    7
 10
820.2921595233463
 20
502.18332836846156
 11
936.2921595233463
 21
502.18332836846156
  0
SOLID
  8
_0-f_
  6
CONTINUOUS
 62
    7
 10
896.81127483749049
 20
502.57257238268903
 11
903.66130493145943
 21
495.47915857000658
 12
899.1968680092142
 22
493.00448077436613
 13
899.1968680092142
 23
493.00448077436613
  0
TEXT
  8
_0-e_文字
 62
    7
 10
826.15117496010203
 20
402.73792708526025
 40
9
 41
1
 50
0
  1
105x105
  0
CIRCLE
  8
_0-3_雑工事
  6
CONTINUOUS
 62
    7
 10
815.29215952334641
 20
486.68332836846162
 40
4.9999999999999929
  0
TEXT
  8
_0-e_文字
 62
    7
 10
931.27621986135887
 20
486.88812138044176
 40
9
 41
1
 50
0
  1
防風シート
  0
TEXT
  8
_0-e_文字
 62
    4
 10
941.79257156027438
 20
477.74883812818052
 40
7.4999999999999574
 41
1.0000000000000051
 50
0
  1
(建築工事)
  0
LINE
  8
_0-f_
  6
CONTINUOUS
 62
    7
 10
903.43995077609247
 20
491.09134067911464
 11
896.81127483749049
 21
502.57257238268903
  0
LINE
  8
_0-f_
  6
CONTINUOUS
 62
    7
 10
930.13637242959635
 20
491.09134067911464
 11
903.43995077609247
 21
491.09134067911464
  0
TEXT
  8
_0-e_文字
 62
    4
 10
942.67686771842773
 20
457.39909485402939
 40
7.4999999999998295
 41
1.0000000000000218
 50
0
  1
(建築工事)
  0
SOLID
  8
_0-f_
  6
CONTINUOUS
 62
    7
 10
820.23025455112656
 20
496.86092544393443
 11
827.08028464509562
 21
489.76751163125198
 12
822.61584772285028
 22
487.29283383561153
 13
822.61584772285028
 23
487.29283383561153
  0
SOLID
  8
_0-f_
  6
CONTINUOUS
 62
    7
 10
819.94076690310396
 20
484.99193187500782
 11
826.7907969970729
 21
477.89851806232537
 12
822.32636007482768
 22
475.42384026668492
 13
822.32636007482768
 23
475.42384026668492
  0
LINE
  8
_0-f_
  6
CONTINUOUS
 62
    7
 10
835.98873199993011
 20
469.56637483366245
 11
820.23025455112656
 21
496.86092544393443
  0
LINE
  8
_0-f_
  6
CONTINUOUS
 62
    7
 10
880.71581858209493
 20
469.56637483366245
 11
835.98873199993011
 21
469.56637483366245
  0
LINE
  8
_0-f_
  6
CONTINUOUS
 62
    7
 10
840.81810104288888
 20
448.83123962937611
 11
819.94076690310396
 21
484.99193187500782
  0
LINE
  8
_0-f_
  6
CONTINUOUS
 62
    7
 10
929.4412882219209
 20
448.83123962937611
 11
840.81810104288888
 21
448.83123962937611
  0
TEXT
  8
_0-e_文字
 62
    7
 10
930.88541007684489
 20
444.23940251816651
 40
9
 41
1
 50
0
  1
バックアップ材
  0
TEXT
  8
_0-e_文字
 62
    7
 10
882.31328691438785
 20
465.71447673281705
 40
9
 41
1
 50
0
  1
変成シリコーンシーリング
  0
LINE
  8
_0-1_躯体
  6
CONTINUOUS
 62
    7
 10
820.2921595233463
 20
503.68332836846156
 11
820.2921595233463
 21
398.68332836846156
  0
LINE
  8
_0-1_躯体
  6
CONTINUOUS
 62
    7
 10
820.2921595233463
 20
503.68332836846156
 11
936.29215952334619
 21
503.68332836846156
  0
ARC
  8
_0-2_造作工事
  6
CONTINUOUS
 62
    7
 10
782.29215952334641
 20
378.18332836846162
 40
2
 50
180
 51
270
  0
LINE
  8
_0-1_躯体
  6
CONTINUOUS
 62
    7
 10
804.29215952334653
 20
398.68332836846156
 11
804.29215952334653
 21
386.1833283684615
  0
LINE
  8
_0-1_躯体
  6
CONTINUOUS
 62
    7
 10
804.29215952334653
 20
386.1833283684615
 11
936.29215952334619
 21
386.1833283684615
  0
LINE
  8
_0-2_造作工事
  6
CONTINUOUS
 62
    7
 10
810.2921595233463
 20
386.1833283684615
 11
810.2921595233463
 21
376.18332836846156
  0
LINE
  8
_0-2_造作工事
  6
CONTINUOUS
 62
    7
 10
782.29215952334641
 20
376.18332836846156
 11
810.2921595233463
 21
376.18332836846156
  0
LINE
  8
_0-2_造作工事
  6
CONTINUOUS
 62
    7
 10
835.2921595233463
 20
503.68332836846156
 11
810.2921595233463
 21
503.68332836846156
  0
LINE
  8
_0-3_雑工事
  6
PHANTOM1
 62
    7
 10
810.2921595233463
 20
505.18332836846156
 11
936.2921595233463
 21
505.18332836846156
  0
LINE
  8
_0-6_
  6
CONTINUOUS
 62
    4
 10
819.31386474240981
 20
502.70503358752489
 11
820.2921595233463
 21
501.72673880658806
  0
LINE
  8
_0-6_
  6
CONTINUOUS
 62
    4
 10
820.02097152359613
 20
503.41214036871139
 11
820.2921595233463
 21
503.14095236896122
  0
LINE
  8
_0-6_
  6
CONTINUOUS
 62
    4
 10
819.89849411276202
 20
495.04933640530703
 11
820.2921595233463
 21
494.65567099472258
  0
LINE
  8
_0-6_
  6
CONTINUOUS
 62
    4
 10
818.02557267178975
 20
501.16489853339863
 11
820.2921595233463
 21
498.8983116818419
  0
LINE
  8
_0-6_
  6
CONTINUOUS
 62
    4
 10
818.69546330659819
 20
501.90922146096335
 11
820.2921595233463
 21
500.3125252442149
  0
LINE
  8
_0-6_
  6
CONTINUOUS
 62
    4
 10
815.67871571198066
 20
500.68332836846156
 11
820.2921595233463
 21
496.06988455709575
  0
LINE
  8
_0-6_
  6
CONTINUOUS
 62
    4
 10
810.29215127535224
 20
495.26970997460393
 11
815.70576966920987
 21
500.68332836846156
  0
LINE
  8
_0-6_
  6
CONTINUOUS
 62
    4
 10
817.09292927435365
 20
500.68332836846156
 11
820.2921595233463
 21
497.48409811946874
  0
LINE
  8
_0-6_
  6
CONTINUOUS
 62
    4
 10
814.26450214960732
 20
500.68332836846156
 11
819.89849411276202
 21
495.04933640530703
  0
LINE
  8
_0-6_
  6
CONTINUOUS
 62
    4
 10
810.29215127535224
 20
496.68392353697692
 11
814.29155610683688
 21
500.68332836846156
  0
LINE
  8
_0-6_
  6
CONTINUOUS
 62
    4
 10
810.29215127535224
 20
498.09813709935008
 11
812.87734254446389
 21
500.68332836846156
  0
LINE
  8
_0-6_
  6
CONTINUOUS
 62
    4
 10
810.29215127535224
 20
499.51235066172325
 11
811.3776442527186
 21
500.59784363908943
  0
LINE
  8
_0-6_
  6
CONTINUOUS
 62
    4
 10
810.29215127535224
 20
500.92656422409624
 11
810.67053747153193
 21
501.30495042027593
  0
LINE
  8
_0-6_
  6
CONTINUOUS
 62
    4
 10
812.85028858723433
 20
500.68332836846156
 11
820.2921595233463
 21
493.24145743234942
  0
LINE
  8
_0-6_
  6
CONTINUOUS
 62
    4
 10
811.43607502486134
 20
500.68332836846156
 11
820.2921595233463
 21
491.82724386997643
  0
LINE
  8
_0-6_
  6
CONTINUOUS
 62
    4
 10
813.77683748107552
 20
491.68332836846156
 11
820.2921595233463
 21
498.19865041073251
  0
LINE
  8
_0-6_
  6
CONTINUOUS
 62
    4
 10
815.19105104344851
 20
491.68332836846156
 11
820.2921595233463
 21
496.78443684835952
  0
LINE
  8
_0-6_
  6
CONTINUOUS
 62
    4
 10
810.94841035632919
 20
491.68332836846156
 11
820.2921595233463
 21
501.02707753547867
  0
LINE
  8
_0-6_
  6
CONTINUOUS
 62
    4
 10
810.29215127535224
 20
498.99882499322433
 11
817.60764790011501
 21
491.68332836846156
  0
LINE
  8
_0-6_
  6
CONTINUOUS
 62
    4
 10
810.29215127535224
 20
500.4130385555975
 11
819.021861462488
 21
491.68332836846156
  0
LINE
  8
_0-6_
  6
CONTINUOUS
 62
    4
 10
810.29215127535224
 20
497.58461143085134
 11
816.19343433774202
 21
491.68332836846156
  0
LINE
  8
_0-6_
  6
CONTINUOUS
 62
    4
 10
810.29215127535224
 20
496.17039786847818
 11
814.77922077536869
 21
491.68332836846156
  0
LINE
  8
_0-6_
  6
CONTINUOUS
 62
    4
 10
810.29215952334653
 20
493.85550466022505
 11
817.11998323158286
 21
500.68332836846156
  0
LINE
  8
_0-6_
  6
CONTINUOUS
 62
    4
 10
810.29215952334653
 20
492.44129109785189
 11
820.2921595233463
 21
502.44129109785183
  0
LINE
  8
_0-6_
  6
CONTINUOUS
 62
    4
 10
819.43369173056749
 20
491.68332836846156
 11
820.2921595233463
 21
492.54179616124054
  0
LINE
  8
_0-6_
  6
CONTINUOUS
 62
    4
 10
818.0194781681945
 20
491.68332836846156
 11
820.2921595233463
 21
493.95600972361353
  0
LINE
  8
_0-6_
  6
CONTINUOUS
 62
    4
 10
816.6052646058215
 20
491.68332836846156
 11
820.2921595233463
 21
495.37022328598653
  0
LINE
  8
_0-6_
  6
CONTINUOUS
 62
    4
 10
812.36262391870252
 20
491.68332836846156
 11
820.2921595233463
 21
499.61286397310568
  0
LINE
  8
_0-6_
  6
CONTINUOUS
 62
    4
 10
810.29215952334653
 20
491.9277489333644
 11
810.53658008824937
 21
491.68332836846156
  0
LINE
  8
_0-6_
  6
CONTINUOUS
 62
    4
 10
810.29215127535224
 20
438.89474859236805
 11
820.2921595233463
 21
428.89474034437399
  0
LINE
  8
_0-6_
  6
CONTINUOUS
 62
    4
 10
810.29215127535224
 20
436.77342824880839
 11
820.2921595233463
 21
426.77342000081433
  0
LINE
  8
_0-6_
  6
CONTINUOUS
 62
    4
 10
810.29215127535224
 20
434.65210790524873
 11
820.2921595233463
 21
424.65209965725455
  0
LINE
  8
_0-6_
  6
CONTINUOUS
 62
    4
 10
810.29215127535224
 20
432.53078756168918
 11
820.2921595233463
 21
422.53077931369501
  0
LINE
  8
_0-6_
  6
CONTINUOUS
 62
    4
 10
810.29215127535224
 20
430.40946721812958
 11
820.2921595233463
 21
420.40945897013546
  0
LINE
  8
_0-6_
  6
CONTINUOUS
 62
    4
 10
810.29215127535224
 20
428.28814687456992
 11
820.2921595233463
 21
418.28813862657586
  0
LINE
  8
_0-6_
  6
CONTINUOUS
 62
    4
 10
820.2921595233463
 20
436.77342824880839
 11
810.29215952334653
 21
426.77342824880839
  0
LINE
  8
_0-6_
  6
CONTINUOUS
 62
    4
 10
820.2921595233463
 20
434.65210790524873
 11
810.29215952334653
 21
424.65210790524861
  0
LINE
  8
_0-6_
  6
CONTINUOUS
 62
    4
 10
820.2921595233463
 20
432.53078756168918
 11
810.29215952334653
 21
422.53078756168895
  0
LINE
  8
_0-6_
  6
CONTINUOUS
 62
    4
 10
820.2921595233463
 20
430.40946721812958
 11
810.29215952334653
 21
420.40946721812952
  0
LINE
  8
_0-6_
  6
CONTINUOUS
 62
    4
 10
820.2921595233463
 20
428.28814687456997
 11
810.29215952334653
 21
418.28814687456997
  0
LINE
  8
_0-6_
  6
CONTINUOUS
 62
    4
 10
810.29215127535224
 20
426.21209073028132
 11
820.2921595233463
 21
416.21208248228726
  0
LINE
  8
_0-6_
  6
CONTINUOUS
 62
    4
 10
820.2921595233463
 20
426.21209073028132
 11
810.29215127535224
 21
416.21208248228726
  0
LINE
  8
_0-6_
  6
CONTINUOUS
 62
    4
 10
820.2921595233463
 20
424.09077038672166
 11
810.29215127535224
 21
414.09076213872754
  0
LINE
  8
_0-6_
  6
CONTINUOUS
 62
    4
 10
810.29215127535224
 20
424.09077038672166
 11
820.2921595233463
 21
414.0907621387276
  0
LINE
  8
_0-6_
  6
CONTINUOUS
 62
    4
 10
810.29215127535224
 20
421.969450043162
 11
820.2921595233463
 21
411.96944179516794
  0
LINE
  8
_0-6_
  6
CONTINUOUS
 62
    4
 10
820.2921595233463
 20
421.969450043162
 11
810.29215952334653
 21
411.96945004316194
  0
LINE
  8
_0-6_
  6
CONTINUOUS
 62
    4
 10
810.29215952334653
 20
493.34196249573773
 11
811.95079365062236
 21
491.68332836846156
  0
LINE
  8
_0-6_
  6
CONTINUOUS
 62
    4
 10
810.29215952334653
 20
494.7561760581109
 11
813.36500721299569
 21
491.68332836846156
  0
LINE
  8
_0-6_
  6
CONTINUOUS
 62
    4
 10
810.63757561176931
 20
484.85717158163084
 11
817.11831631017708
 21
491.33791228003872
  0
LINE
  8
_0-6_
  6
CONTINUOUS
 62
    4
 10
810.34241205504054
 20
485.97622158727518
 11
815.99926630453274
 21
491.63307583676749
  0
LINE
  8
_0-6_
  6
CONTINUOUS
 62
    4
 10
810.34241205504054
 20
487.3904351496484
 11
814.58505274215963
 21
491.63307583676738
  0
LINE
  8
_0-6_
  6
CONTINUOUS
 62
    4
 10
811.75662561741376
 20
483.14779446252885
 11
818.82769342927907
 21
490.21886227439433
  0
LINE
  8
_0-6_
  6
CONTINUOUS
 62
    4
 10
811.12095112702218
 20
483.92633353451043
 11
818.04915435729765
 21
490.85453676478591
  0
LINE
  8
_0-6_
  6
CONTINUOUS
 62
    4
 10
812.53516468939517
 20
482.51211997213738
 11
819.46336791967065
 21
489.44032320241286
  0
LINE
  8
_0-6_
  6
CONTINUOUS
 62
    4
 10
813.46600273651552
 20
491.33791228003861
 11
819.94674343492352
 21
484.85717158163078
  0
LINE
  8
_0-6_
  6
CONTINUOUS
 62
    4
 10
814.58505274215986
 20
491.63307583676749
 11
820.24190699165229
 21
485.97622158727501
  0
LINE
  8
_0-6_
  6
CONTINUOUS
 62
    4
 10
815.99926630453308
 20
491.63307583676738
 11
820.24190699165229
 21
487.39043514964828
  0
LINE
  8
_0-6_
  6
CONTINUOUS
 62
    4
 10
811.75662561741376
 20
490.21886227439433
 11
818.82769342927907
 21
483.14779446252885
  0
LINE
  8
_0-6_
  6
CONTINUOUS
 62
    4
 10
812.53516468939517
 20
490.85453676478591
 11
819.46336791967065
 21
483.92633353451038
  0
LINE
  8
_0-6_
  6
CONTINUOUS
 62
    4
 10
811.12095112702218
 20
489.44032320241274
 11
818.04915435729765
 21
482.51211997213727
  0
LINE
  8
_0-6_
  6
CONTINUOUS
 62
    4
 10
810.63757561176931
 20
488.5094851552924
 11
817.11831631017708
 21
482.02874445688451
  0
LINE
  8
_0-6_
  6
CONTINUOUS
 62
    4
 10
810.34241205504054
 20
487.390435149648
 11
815.99926630453274
 21
481.73358090015574
  0
LINE
  8
_0-6_
  6
CONTINUOUS
 62
    4
 10
810.34241205504054
 20
485.97622158727484
 11
814.58505274215963
 21
481.73358090015586
  0
LINE
  8
_0-6_
  6
CONTINUOUS
 62
    4
 10
813.46600273651552
 20
482.02874445688462
 11
819.94674343492352
 21
488.50948515529251
  0
LINE
  8
_0-6_
  6
CONTINUOUS
 62
    4
 10
815.99926630453297
 20
481.73358090015574
 11
820.24190699165229
 21
485.97622158727506
  0
LINE
  8
_0-6_
  6
CONTINUOUS
 62
    4
 10
814.58505274215975
 20
481.73358090015574
 11
820.24190699165229
 21
487.39043514964817
  0
LINE
  8
ADD_LINE
  6
DOT
 62
    9
 10
815.29215952334641
 20
481.68332836846162
 11
815.29215952334641
 21
491.68332836846156
  0
LINE
  8
ADD_LINE
  6
DOT
 62
    9
 10
810.29215952334653
 20
486.68332836846167
 11
820.29215952334653
 21
486.68332836846162
  0
LINE
  8
_0-6_
  6
CONTINUOUS
 62
    4
 10
820.2921595233463
 20
419.8481296996024
 11
810.29215952334653
 21
409.84812969960228
  0
LINE
  8
_0-6_
  6
CONTINUOUS
 62
    4
 10
820.2921595233463
 20
415.60548901248319
 11
810.29215952334653
 21
405.60548901248325
  0
LINE
  8
_0-6_
  6
CONTINUOUS
 62
    4
 10
820.2921595233463
 20
413.48416866892364
 11
810.29215952334653
 21
403.48416866892296
  0
LINE
  8
_0-6_
  6
CONTINUOUS
 62
    4
 10
810.29215127535224
 20
419.8481296996024
 11
820.2921595233463
 21
409.84812145160828
  0
LINE
  8
_0-6_
  6
CONTINUOUS
 62
    4
 10
810.29215127535224
 20
417.72680935604274
 11
820.2921595233463
 21
407.7268011080489
  0
LINE
  8
_0-6_
  6
CONTINUOUS
 62
    4
 10
810.29215127535224
 20
415.60548901248319
 11
820.2921595233463
 21
405.60548076448924
  0
LINE
  8
_0-6_
  6
CONTINUOUS
 62
    4
 10
810.29215127535224
 20
413.48416866892353
 11
820.2921595233463
 21
403.48416042093072
  0
LINE
  8
_0-6_
  6
CONTINUOUS
 62
    4
 10
810.29215127535258
 20
411.36284832536404
 11
820.29215952334675
 21
401.36284007737129
  0
LINE
  8
_0-6_
  6
CONTINUOUS
 62
    4
 10
820.29215952334675
 20
411.3628483253641
 11
810.29215952334687
 21
401.36284832536353
  0
LINE
  8
_0-6_
  6
CONTINUOUS
 62
    4
 10
810.29215127535304
 20
409.24152798180455
 11
820.29215952334721
 21
399.24151973381174
  0
LINE
  8
_0-6_
  6
CONTINUOUS
 62
    4
 10
820.29215952334721
 20
409.24152798180467
 11
810.29215952334721
 21
399.24152798180398
  0
LINE
  8
_0-6_
  6
CONTINUOUS
 62
    4
 10
810.29215127535463
 20
400.7562466075666
 11
812.36506951445995
 21
398.68332836846156
  0
LINE
  8
_0-6_
  6
CONTINUOUS
 62
    4
 10
820.2921595233488
 20
400.75624660756671
 11
818.21924128424382
 21
398.68332836846156
  0
LINE
  8
_0-6_
  6
CONTINUOUS
 62
    4
 10
810.29215127535349
 20
407.12020763824506
 11
818.72903054513813
 21
398.68332836846156
  0
LINE
  8
_0-6_
  6
CONTINUOUS
 62
    4
 10
820.29215952334766
 20
407.12020763824512
 11
811.85528025356462
 21
398.68332836846156
  0
LINE
  8
_0-6_
  6
CONTINUOUS
 62
    4
 10
810.29215127535394
 20
404.99888729468557
 11
816.60771020157881
 21
398.68332836846156
  0
LINE
  8
_0-6_
  6
CONTINUOUS
 62
    4
 10
820.292159523348
 20
404.99888729468569
 11
813.9766005971245
 21
398.68332836846156
  0
LINE
  8
_0-6_
  6
CONTINUOUS
 62
    4
 10
810.29215127535429
 20
402.87756695112608
 11
814.48638985801927
 21
398.68332836846156
  0
LINE
  8
_0-6_
  6
CONTINUOUS
 62
    4
 10
820.29215952334835
 20
402.87756695112614
 11
816.09792094068416
 21
398.68332836846156
  0
LINE
  8
_0-6_
  6
CONTINUOUS
 62
    4
 10
820.2921595233463
 20
417.72680935604274
 11
810.59215834451811
 21
408.02680817721438
  0
LINE
  8
_0-6_
  6
CONTINUOUS
 62
    4
 10
810.59215834451811
 20
408.02680817721438
 11
810.29215952334653
 21
407.72680935604262
  0
LINE
  8
_0-6_
  6
CONTINUOUS
 62
    4
 10
805.75247340366445
 20
386.1833283684615
 11
795.75247340366445
 21
376.18332836846156
  0
LINE
  8
_0-6_
  6
CONTINUOUS
 62
    4
 10
810.2921595233463
 20
383.65194667627799
 11
802.82354121552999
 21
376.18332836846156
  0
LINE
  8
_0-6_
  6
CONTINUOUS
 62
    4
 10
810.2921595233463
 20
376.58087886441251
 11
809.8946090273954
 21
376.18332836846156
  0
TEXT
  8
_0-e_文字
 62
    4
 10
957.91926842380826
 20
434.25498228529852
 40
7.4999999999998295
 41
1.0000000000000138
 50
0
  1
(建築工事)
  0
LINE
  8
_0-e_文字
  6
CONTINUOUS
 62
    7
 10
607.1005209217858
 20
561.98707514702937
 11
562.60052092178569
 21
561.98707514702937
  0
LINE
  8
_0-e_文字
  6
CONTINUOUS
 62
    7
 10
562.60052092178569
 20
573.85784855394127
 11
607.1005209217858
 21
573.85784855394127
  0
LINE
  8
_0-e_文字
  6
CONTINUOUS
 62
    7
 10
562.60052092178569
 20
561.98707514702937
 11
562.60052092178569
 21
573.85784855394127
  0
LINE
  8
_0-e_文字
  6
CONTINUOUS
 62
    7
 10
607.1005209217858
 20
573.85784855394127
 11
607.1005209217858
 21
561.98707514702937
  0
LINE
  8
ADD_LINE
  6
DOT
 62
    9
 10
609.45999257302856
 20
567.92246185048532
 11
562.60052092178569
 21
567.92246185048532
  0
LINE
  8
ADD_LINE
  6
DOT
 62
    9
 10
584.85052092178557
 20
573.85784855394127
 11
584.85052092178557
 21
561.98707514702937
  0
TEXT
  8
_0-e_文字
 62
    4
 10
571.35052092178557
 20
563.42246185048532
 40
9
 41
1
 50
0
  1
外部・
  0
TEXT
  8
_0-d_寸法
 62
    4
 10
475.52346157336603
 20
278.90336554369219
 40
9
 41
1
 50
0
  1
10
  0
LINE
  8
_0-d_寸法
  6
CONTINUOUS
 62
    4
 10
497.29214859475439
 20
313.9592650353037
 11
497.29214859475439
 21
272.35926505765542
  0
LINE
  8
_0-d_寸法
  6
CONTINUOUS
 62
    4
 10
487.29214859475439
 20
313.9592650353037
 11
487.29214859475439
 21
272.35926505765542
  0
LINE
  8
_0-d_寸法
  6
CONTINUOUS
 62
    4
 10
482.52214861252401
 20
278.35926503530357
 11
487.29214859475439
 21
278.35926503530357
  0
CIRCLE
  8
_0-d_寸法
  6
CONTINUOUS
 62
    4
 10
487.29214859475439
 20
278.35926503530357
 40
1.7254760742187489
  0
CIRCLE
  8
_0-d_寸法
  6
CONTINUOUS
 62
    4
 10
497.29214859475439
 20
278.35926503530357
 40
1.7254760742187489
  0
LINE
  8
_0-d_寸法
  6
CONTINUOUS
 62
    4
 10
487.29214859475439
 20
278.35926503530357
 11
497.29214859475439
 21
278.35926503530357
  0
LINE
  8
_0-d_寸法
  6
CONTINUOUS
 62
    4
 10
492.52214861252401
 20
288.35926503530357
 11
497.29214859475439
 21
288.35926503530357
  0
CIRCLE
  8
_0-d_寸法
  6
CONTINUOUS
 62
    4
 10
497.29214859475439
 20
288.35926503530357
 40
1.7254760742187489
  0
LINE
  8
_0-d_寸法
  6
CONTINUOUS
 62
    4
 10
527.29214859475439
 20
313.9592650353037
 11
527.29214859475439
 21
282.35926505765531
  0
LINE
  8
_0-d_寸法
  6
CONTINUOUS
 62
    4
 10
527.29214859475439
 20
288.35926503530357
 11
532.06214857698455
 21
288.35926503530357
  0
CIRCLE
  8
_0-d_寸法
  6
CONTINUOUS
 62
    4
 10
527.29214859475439
 20
288.35926503530357
 40
1.7254760742187489
  0
LINE
  8
_0-d_寸法
  6
CONTINUOUS
 62
    4
 10
497.29214859475439
 20
288.35926503530357
 11
527.29214859475439
 21
288.35926503530357
  0
TEXT
  8
_0-d_寸法
 62
    4
 10
507.58091145081232
 20
289.1154710469383
 40
10.500000000000043
 41
0.9999999999999877
 50
0
  1
30
  0
TEXT
  8
_0-d_寸法
 62
    4
 10
634.82423804323776
 20
281.16213458024419
 40
9
 41
1
 50
0
  1
サッシＷ
  0
TEXT
  8
_0-d_寸法
 62
    4
 10
821.94599141963567
 20
281.04474122723002
 40
9
 41
1
 50
0
  1
10
  0
LINE
  8
_0-d_寸法
  6
CONTINUOUS
 62
    4
 10
825.0621595055768
 20
278.35926503530357
 11
820.2921595233463
 21
278.35926503530357
  0
CIRCLE
  8
_0-d_寸法
  6
CONTINUOUS
 62
    4
 10
820.2921595233463
 20
278.35926503530357
 40
1.7254760742187489
  0
LINE
  8
_0-d_寸法
  6
CONTINUOUS
 62
    4
 10
810.29215952334653
 20
313.9592650353037
 11
810.29215952334653
 21
272.35926505765542
  0
CIRCLE
  8
_0-d_寸法
  6
CONTINUOUS
 62
    4
 10
810.29215952334653
 20
278.35926503530357
 40
1.7254760742187489
  0
LINE
  8
_0-d_寸法
  6
CONTINUOUS
 62
    4
 10
815.06215950557669
 20
288.35926503530357
 11
810.29215952334653
 21
288.35926503530357
  0
CIRCLE
  8
_0-d_寸法
  6
CONTINUOUS
 62
    4
 10
810.29215952334653
 20
288.35926503530357
 40
1.7254760742187489
  0
LINE
  8
_0-d_寸法
  6
CONTINUOUS
 62
    4
 10
780.29215952334653
 20
313.9592650353037
 11
780.29215952334653
 21
282.35926505765531
  0
LINE
  8
_0-d_寸法
  6
CONTINUOUS
 62
    4
 10
780.29215952334653
 20
288.35926503530357
 11
775.52215954111625
 21
288.35926503530357
  0
CIRCLE
  8
_0-d_寸法
  6
CONTINUOUS
 62
    4
 10
780.29215952334653
 20
288.35926503530357
 40
1.7254760742187489
  0
LINE
  8
_0-d_寸法
  6
CONTINUOUS
 62
    4
 10
810.29215952334653
 20
288.35926503530357
 11
780.29215952334653
 21
288.35926503530357
  0
TEXT
  8
_0-d_寸法
 62
    4
 10
789.50339666728848
 20
289.11547104693841
 40
10.500000000000043
 41
0.9999999999999877
 50
0
  1
30
  0
LINE
  8
_0-d_寸法
  6
CONTINUOUS
 62
    4
 10
820.2921595233463
 20
313.9592650353037
 11
820.2921595233463
 21
289.32211179486615
  0
LINE
  8
_0-d_寸法
  6
CONTINUOUS
 62
    4
 10
820.2921595233463
 20
289.32211179486615
 11
820.2921595233463
 21
272.35926505765542
  0
LINE
  8
_0-d_寸法
  6
CONTINUOUS
 62
    4
 10
497.29214859475439
 20
278.35926503530357
 11
820.2921595233463
 21
278.35926503530357
  0
LINE
  8
_0-7_ハッチ
  6
CONTINUOUS
 62
    4
 10
492.56333659450456
 20
359.59962882151973
 11
492.29214859475439
 21
359.32844082176956
  0
LINE
  8
_0-3_雑工事
  6
PHANTOM1
 62
    7
 10
503.29214859475439
 20
397.1833283684615
 11
371.29214859475451
 21
397.1833283684615
  0
LINE
  8
_0-3_雑工事
  6
PHANTOM1
 62
    7
 10
804.29215952334653
 20
397.1833283684615
 11
936.2921595233463
 21
397.1833283684615
  0
LINE
  8
_0-1_躯体
  6
CONTINUOUS
 62
    7
 10
804.29215952334653
 20
398.68332836846156
 11
936.29215952334619
 21
398.68332836846156
  0
LINE
  8
_0-6_
  6
CONTINUOUS
 62
    4
 10
527.29214859475439
 20
415.43198561620153
 11
503.29214859475439
 21
391.43198561620216
  0
LINE
  8
_0-6_
  6
CONTINUOUS
 62
    4
 10
527.29214859475439
 20
408.3609178043364
 11
497.29214859475445
 21
378.36091780433657
  0
LINE
  8
_0-6_
  6
CONTINUOUS
 62
    4
 10
527.29214859475439
 20
401.28984999247109
 11
502.18562697074492
 21
376.18332836846156
  0
LINE
  8
_0-6_
  6
CONTINUOUS
 62
    4
 10
497.29215374975058
 20
441.01606584292983
 11
487.29214859475439
 21
431.01606068793365
  0
LINE
  8
_0-6_
  6
CONTINUOUS
 62
    4
 10
497.29215374975058
 20
443.13738618648949
 11
487.29214859475439
 21
433.13738103149319
  0
LINE
  8
_0-6_
  6
CONTINUOUS
 62
    4
 10
497.29215374975058
 20
445.25870653004904
 11
487.29214859475439
 21
435.25870137505279
  0
LINE
  8
_0-6_
  6
CONTINUOUS
 62
    4
 10
497.29215374975058
 20
447.38002687360859
 11
487.29214859475439
 21
437.3800217186124
  0
LINE
  8
_0-6_
  6
CONTINUOUS
 62
    4
 10
487.29214859475439
 20
438.89474859236805
 11
497.29215684274845
 21
428.89474034437387
  0
LINE
  8
_0-6_
  6
CONTINUOUS
 62
    4
 10
487.29214859475439
 20
441.01606893592771
 11
497.29215684274845
 21
431.01606068793365
  0
LINE
  8
_0-6_
  6
CONTINUOUS
 62
    4
 10
487.29214859475439
 20
443.13738927948737
 11
497.29214859475439
 21
433.13738927948742
  0
LINE
  8
_0-6_
  6
CONTINUOUS
 62
    4
 10
487.29214859475439
 20
445.25870962304691
 11
497.29214859475439
 21
435.25870962304691
  0
LINE
  8
_0-6_
  6
CONTINUOUS
 62
    4
 10
487.29214859475439
 20
447.38002996660668
 11
497.29214859475439
 21
437.3800299666064
  0
LINE
  8
_0-6_
  6
CONTINUOUS
 62
    4
 10
487.29214859475439
 20
449.5013503101672
 11
497.29214859475439
 21
439.50135031016606
  0
LINE
  8
_0-6_
  6
CONTINUOUS
 62
    4
 10
497.29215374975058
 20
449.50134721716819
 11
487.29214859475439
 21
439.50134206217206
  0
LINE
  8
_0-6_
  6
CONTINUOUS
 62
    4
 10
497.29215374975058
 20
451.62266756072813
 11
487.29214859475439
 21
441.62266240573183
  0
LINE
  8
_0-6_
  6
CONTINUOUS
 62
    4
 10
497.29215374975058
 20
453.74398790428768
 11
487.29214859475439
 21
443.74398274929143
  0
LINE
  8
_0-6_
  6
CONTINUOUS
 62
    4
 10
497.29215374975058
 20
455.86530824784722
 11
487.29214859475439
 21
445.86530309285104
  0
LINE
  8
_0-6_
  6
CONTINUOUS
 62
    4
 10
487.29214859475439
 20
451.622670653726
 11
497.29214859475439
 21
441.62267065372606
  0
LINE
  8
_0-6_
  6
CONTINUOUS
 62
    4
 10
487.29214859475439
 20
453.74399099728555
 11
497.29214859475439
 21
443.74399099728555
  0
LINE
  8
_0-6_
  6
CONTINUOUS
 62
    4
 10
487.29214859475439
 20
455.86531134084521
 11
497.29214859475439
 21
445.86531134084504
  0
LINE
  8
_0-6_
  6
CONTINUOUS
 62
    4
 10
487.29214859475439
 20
457.98663168440584
 11
497.29214859475439
 21
447.9866316844047
  0
LINE
  8
_0-6_
  6
CONTINUOUS
 62
    4
 10
497.29215374975058
 20
457.98662859140683
 11
487.29214859475439
 21
447.98662343641058
  0
LINE
  8
_0-6_
  6
CONTINUOUS
 62
    4
 10
497.29215374975058
 20
460.10794893496677
 11
487.29214859475439
 21
450.10794377997047
  0
LINE
  8
_0-6_
  6
CONTINUOUS
 62
    4
 10
497.29215374975058
 20
462.22926927852632
 11
487.29214859475439
 21
452.22926412353007
  0
LINE
  8
_0-6_
  6
CONTINUOUS
 62
    4
 10
497.29215374975058
 20
464.35058962208581
 11
487.29214859475439
 21
454.35058446708967
  0
LINE
  8
_0-6_
  6
CONTINUOUS
 62
    4
 10
487.29214859475439
 20
460.10795202796453
 11
497.29214859475439
 21
450.1079520279647
  0
LINE
  8
_0-6_
  6
CONTINUOUS
 62
    4
 10
487.29214859475439
 20
462.22927237152413
 11
497.29214859475439
 21
452.22927237152419
  0
LINE
  8
_0-6_
  6
CONTINUOUS
 62
    4
 10
487.29214859475439
 20
464.35059271508385
 11
497.29214859475439
 21
454.35059271508368
  0
LINE
  8
_0-6_
  6
CONTINUOUS
 62
    4
 10
487.29214859475439
 20
466.47191305864442
 11
497.29214859475439
 21
456.47191305864334
  0
LINE
  8
_0-6_
  6
CONTINUOUS
 62
    4
 10
497.29215374975058
 20
466.47190996564547
 11
487.29214859475439
 21
456.47190481064922
  0
LINE
  8
_0-6_
  6
CONTINUOUS
 62
    4
 10
497.29215374975058
 20
468.5932303092053
 11
487.29214859475439
 21
458.59322515420905
  0
LINE
  8
_0-6_
  6
CONTINUOUS
 62
    4
 10
497.29215374975058
 20
470.71455065276484
 11
487.29214859475439
 21
460.71454549776865
  0
LINE
  8
_0-6_
  6
CONTINUOUS
 62
    4
 10
497.29215374975058
 20
472.83587099632445
 11
487.29214859475439
 21
462.83586584132831
  0
LINE
  8
_0-6_
  6
CONTINUOUS
 62
    4
 10
487.29214859475439
 20
468.59323340220317
 11
497.29214859475439
 21
458.59323340220328
  0
LINE
  8
_0-6_
  6
CONTINUOUS
 62
    4
 10
487.29214859475439
 20
470.71455374576277
 11
497.29214859475439
 21
460.71455374576271
  0
LINE
  8
_0-6_
  6
CONTINUOUS
 62
    4
 10
487.29214859475439
 20
472.83587408932249
 11
497.29214859475439
 21
462.83587408932226
  0
LINE
  8
_0-6_
  6
CONTINUOUS
 62
    4
 10
487.29214859475439
 20
474.95719443288306
 11
497.29214859475439
 21
464.95719443288192
  0
LINE
  8
_0-6_
  6
CONTINUOUS
 62
    4
 10
497.29215374975058
 20
474.95719133988405
 11
487.29214859475439
 21
464.95718618488786
  0
LINE
  8
_0-6_
  6
CONTINUOUS
 62
    4
 10
497.29215374975058
 20
477.07851168344393
 11
487.29214859475439
 21
467.07850652844769
  0
LINE
  8
_0-6_
  6
CONTINUOUS
 62
    4
 10
497.29215374975058
 20
479.19983202700348
 11
487.29214859475439
 21
469.19982687200729
  0
LINE
  8
_0-6_
  6
CONTINUOUS
 62
    4
 10
497.29215374975058
 20
481.32115237056308
 11
487.29214859475439
 21
471.32114721556684
  0
LINE
  8
_0-6_
  6
CONTINUOUS
 62
    4
 10
487.29214859475439
 20
477.07851477644181
 11
497.29214859475439
 21
467.07851477644192
  0
LINE
  8
_0-6_
  6
CONTINUOUS
 62
    4
 10
487.29214859475439
 20
479.19983512000141
 11
497.29214859475439
 21
469.19983512000135
  0
LINE
  8
_0-6_
  6
CONTINUOUS
 62
    4
 10
487.29214859475439
 20
481.32115546356107
 11
497.29214859475439
 21
471.3211554635609
  0
LINE
  8
_0-6_
  6
CONTINUOUS
 62
    4
 10
489.16904837341053
 20
481.68332836846162
 11
487.29214859475439
 21
479.80642858980548
  0
LINE
  8
_0-6_
  6
CONTINUOUS
 62
    4
 10
489.0512960334143
 20
481.68332836846162
 11
497.29214859475439
 21
473.44247580712056
  0
LINE
  8
_0-6_
  6
CONTINUOUS
 62
    4
 10
491.29036871697014
 20
481.68332836846162
 11
487.29214859475439
 21
477.68510824624593
  0
LINE
  8
_0-6_
  6
CONTINUOUS
 62
    4
 10
491.17261637697362
 20
481.68332836846162
 11
497.29214859475439
 21
475.5637961506801
  0
LINE
  8
_0-6_
  6
CONTINUOUS
 62
    4
 10
493.41168906052997
 20
481.68332836846162
 11
487.29214859475439
 21
475.56378790268604
  0
LINE
  8
_0-6_
  6
CONTINUOUS
 62
    4
 10
493.29393672053322
 20
481.68332836846162
 11
497.29214859475439
 21
477.68511649423994
  0
LINE
  8
_0-6_
  6
CONTINUOUS
 62
    4
 10
495.41525706409254
 20
481.68332836846162
 11
497.29214859475439
 21
479.80643683779959
  0
LINE
  8
_0-6_
  6
CONTINUOUS
 62
    4
 10
495.53300940408963
 20
481.68332836846162
 11
487.29214859475439
 21
473.44246755912638
  0
LINE
  8
_0-6_
  6
CONTINUOUS
 62
    4
 10
527.29214859475439
 20
422.50305342806701
 11
502.18562697074492
 21
397.39653180405747
  0
LINE
  8
_0-6_
  6
CONTINUOUS
 62
    4
 10
810.29215952334653
 20
404.86515011187453
 11
781.70000865828729
 21
376.27299924681529
  0
LINE
  8
_0-6_
  6
CONTINUOUS
 62
    4
 10
810.29215952334653
 20
411.93621792373989
 11
780.29215952334653
 21
381.93621792373995
  0
LINE
  8
_0-6_
  6
CONTINUOUS
 62
    4
 10
810.29215952334653
 20
426.07835354747101
 11
780.29215952334653
 21
396.0783535474709
  0
LINE
  8
_0-6_
  6
CONTINUOUS
 62
    4
 10
810.29215952334653
 20
419.00728573560514
 11
780.29215952334653
 21
389.00728573560554
  0
LINE
  8
_0-6_
  6
CONTINUOUS
 62
    4
 10
820.2921595233463
 20
438.89474859236805
 11
810.29215127535224
 21
428.89474034437387
  0
LINE
  8
_0-6_
  6
CONTINUOUS
 62
    4
 10
810.29215952334653
 20
441.01606068793353
 11
820.2921595233463
 21
431.01606068793365
  0
LINE
  8
_0-6_
  6
CONTINUOUS
 62
    4
 10
810.29215952334653
 20
443.13738103149319
 11
820.2921595233463
 21
433.13738103149319
  0
LINE
  8
_0-6_
  6
CONTINUOUS
 62
    4
 10
810.29215952334653
 20
445.25870137505274
 11
820.2921595233463
 21
435.25870137505279
  0
LINE
  8
_0-6_
  6
CONTINUOUS
 62
    4
 10
810.29215952334653
 20
447.3800217186124
 11
820.2921595233463
 21
437.3800217186124
  0
LINE
  8
_0-6_
  6
CONTINUOUS
 62
    4
 10
820.2921595233463
 20
443.13738927948737
 11
810.29215952334653
 21
433.13738927948742
  0
LINE
  8
_0-6_
  6
CONTINUOUS
 62
    4
 10
820.2921595233463
 20
445.25870962304703
 11
810.29215952334653
 21
435.25870962304691
  0
LINE
  8
_0-6_
  6
CONTINUOUS
 62
    4
 10
820.2921595233463
 20
447.38002996660657
 11
810.29215952334653
 21
437.3800299666064
  0
LINE
  8
_0-6_
  6
CONTINUOUS
 62
    4
 10
820.2921595233463
 20
449.50135031016617
 11
810.29215952334653
 21
439.50135031016606
  0
LINE
  8
_0-6_
  6
CONTINUOUS
 62
    4
 10
810.29215952334653
 20
449.50134206217189
 11
820.2921595233463
 21
439.50134206217194
  0
LINE
  8
_0-6_
  6
CONTINUOUS
 62
    4
 10
820.2921595233463
 20
462.22927237152385
 11
810.29215127535224
 21
452.22926412352979
  0
LINE
  8
_0-6_
  6
CONTINUOUS
 62
    4
 10
810.29215127535224
 20
460.10795202796419
 11
820.2921595233463
 21
450.10794377997013
  0
LINE
  8
_0-6_
  6
CONTINUOUS
 62
    4
 10
810.29215127535224
 20
457.98663168440453
 11
820.2921595233463
 21
447.98662343641047
  0
LINE
  8
_0-6_
  6
CONTINUOUS
 62
    4
 10
810.29215127535224
 20
455.86531134084487
 11
820.2921595233463
 21
445.86530309285075
  0
LINE
  8
_0-6_
  6
CONTINUOUS
 62
    4
 10
810.29215127535224
 20
453.74399099728532
 11
820.2921595233463
 21
443.74398274929115
  0
LINE
  8
_0-6_
  6
CONTINUOUS
 62
    4
 10
810.29215127535224
 20
451.62267065372578
 11
820.2921595233463
 21
441.6226624057316
  0
LINE
  8
_0-6_
  6
CONTINUOUS
 62
    4
 10
820.2921595233463
 20
457.98663168440453
 11
810.29215952334653
 21
447.98663168440453
  0
LINE
  8
_0-6_
  6
CONTINUOUS
 62
    4
 10
820.2921595233463
 20
455.86531134084487
 11
810.29215952334653
 21
445.86531134084476
  0
LINE
  8
_0-6_
  6
CONTINUOUS
 62
    4
 10
820.2921595233463
 20
453.74399099728532
 11
810.29215952334653
 21
443.7439909972851
  0
LINE
  8
_0-6_
  6
CONTINUOUS
 62
    4
 10
820.2921595233463
 20
451.62267065372578
 11
810.29215952334653
 21
441.62267065372572
  0
LINE
  8
_0-6_
  6
CONTINUOUS
 62
    4
 10
820.2921595233463
 20
460.10795202796419
 11
810.29215127535224
 21
450.10794377997007
  0
LINE
  8
_0-6_
  6
CONTINUOUS
 62
    4
 10
810.29215952334653
 20
462.22926412352967
 11
820.2921595233463
 21
452.22926412352979
  0
LINE
  8
_0-6_
  6
CONTINUOUS
 62
    4
 10
810.29215952334653
 20
464.35058446708933
 11
820.2921595233463
 21
454.35058446708939
  0
LINE
  8
_0-6_
  6
CONTINUOUS
 62
    4
 10
810.29215952334653
 20
466.47190481064888
 11
820.2921595233463
 21
456.47190481064899
  0
LINE
  8
_0-6_
  6
CONTINUOUS
 62
    4
 10
810.29215952334653
 20
468.59322515420848
 11
820.2921595233463
 21
458.59322515420854
  0
LINE
  8
_0-6_
  6
CONTINUOUS
 62
    4
 10
820.2921595233463
 20
464.35059271508351
 11
810.29215952334653
 21
454.35059271508362
  0
LINE
  8
_0-6_
  6
CONTINUOUS
 62
    4
 10
820.2921595233463
 20
466.47191305864311
 11
810.29215952334653
 21
456.47191305864305
  0
LINE
  8
_0-6_
  6
CONTINUOUS
 62
    4
 10
820.2921595233463
 20
468.59323340220271
 11
810.29215952334653
 21
458.5932334022026
  0
LINE
  8
_0-6_
  6
CONTINUOUS
 62
    4
 10
820.2921595233463
 20
470.71455374576237
 11
810.29215952334653
 21
460.71455374576226
  0
LINE
  8
_0-6_
  6
CONTINUOUS
 62
    4
 10
810.29215952334653
 20
470.71454549776809
 11
820.2921595233463
 21
460.71454549776809
  0
LINE
  8
_0-6_
  6
CONTINUOUS
 62
    4
 10
810.29215952334653
 20
472.83586584132763
 11
820.2921595233463
 21
462.83586584132769
  0
LINE
  8
_0-6_
  6
CONTINUOUS
 62
    4
 10
810.29215952334653
 20
474.95718618488718
 11
820.2921595233463
 21
464.95718618488729
  0
LINE
  8
_0-6_
  6
CONTINUOUS
 62
    4
 10
820.2921595233463
 20
472.83587408932181
 11
810.29215952334653
 21
462.83587408932181
  0
LINE
  8
_0-6_
  6
CONTINUOUS
 62
    4
 10
820.2921595233463
 20
474.95719443288141
 11
810.29215952334653
 21
464.95719443288129
  0
LINE
  8
_0-6_
  6
CONTINUOUS
 62
    4
 10
820.2921595233463
 20
477.07851477644107
 11
810.29215952334653
 21
467.07851477644095
  0
LINE
  8
_0-6_
  6
CONTINUOUS
 62
    4
 10
810.29215952334653
 20
477.07850652844678
 11
820.2921595233463
 21
467.07850652844684
  0
LINE
  8
_0-6_
  6
CONTINUOUS
 62
    4
 10
810.29215952334653
 20
479.19982687200638
 11
820.2921595233463
 21
469.19982687200638
  0
LINE
  8
_0-6_
  6
CONTINUOUS
 62
    4
 10
810.29215952334653
 20
481.32114721556593
 11
820.2921595233463
 21
471.32114721556599
  0
LINE
  8
_0-6_
  6
CONTINUOUS
 62
    4
 10
820.2921595233463
 20
479.19983512000056
 11
810.29215952334653
 21
469.19983512000056
  0
LINE
  8
_0-6_
  6
CONTINUOUS
 62
    4
 10
820.2921595233463
 20
481.3211554635601
 11
810.29215952334653
 21
471.32115546355999
  0
LINE
  8
_0-6_
  6
CONTINUOUS
 62
    4
 10
812.16905105400951
 20
481.68332836846162
 11
810.29215952334653
 21
479.8064368377984
  0
LINE
  8
_0-6_
  6
CONTINUOUS
 62
    4
 10
818.41525974468891
 20
481.68332836846162
 11
820.2921595233463
 21
479.80642858980428
  0
LINE
  8
_0-6_
  6
CONTINUOUS
 62
    4
 10
818.53301208468815
 20
481.68332836846162
 11
810.29215952334653
 21
473.44247580711965
  0
LINE
  8
_0-6_
  6
CONTINUOUS
 62
    4
 10
812.05129871401027
 20
481.68332836846162
 11
820.2921595233463
 21
473.44246755912559
  0
LINE
  8
_0-6_
  6
CONTINUOUS
 62
    4
 10
814.17261905756982
 20
481.68332836846162
 11
820.2921595233463
 21
475.56378790268514
  0
LINE
  8
_0-6_
  6
CONTINUOUS
 62
    4
 10
816.29393940112948
 20
481.68332836846162
 11
820.2921595233463
 21
477.68510824624468
  0
LINE
  8
_0-6_
  6
CONTINUOUS
 62
    4
 10
816.41169174112872
 20
481.68332836846162
 11
810.29215952334653
 21
475.56379615067925
  0
LINE
  8
_0-6_
  6
CONTINUOUS
 62
    4
 10
814.29037139756929
 20
481.68332836846162
 11
810.29215952334653
 21
477.68511649423874
  0
LINE
  8
_0-e_文字
  6
CONTINUOUS
 62
    7
 10
607.1005209217858
 20
352.84943709348687
 11
607.1005209217858
 21
340.97866368657469
  0
LINE
  8
_0-e_文字
  6
CONTINUOUS
 62
    7
 10
607.1005209217858
 20
340.97866368657469
 11
562.60052092178569
 21
340.97866368657469
  0
LINE
  8
_0-e_文字
  6
CONTINUOUS
 62
    7
 10
562.60052092178569
 20
352.84943709348687
 11
607.1005209217858
 21
352.84943709348687
  0
LINE
  8
_0-e_文字
  6
CONTINUOUS
 62
    7
 10
562.60052092178569
 20
340.97866368657469
 11
562.60052092178569
 21
343.82013088417119
  0
LINE
  8
_0-e_文字
  6
CONTINUOUS
 62
    7
 10
562.60052092178569
 20
343.82013088417119
 11
562.60052092178569
 21
352.84943709348687
  0
LINE
  8
ADD_LINE
  6
DOT
 62
    9
 10
607.1005209217858
 20
346.9140503900307
 11
562.60052092178569
 21
346.9140503900307
  0
LINE
  8
ADD_LINE
  6
DOT
 62
    9
 10
584.85052092178557
 20
352.84943709348687
 11
584.85052092178557
 21
340.97866368657469
  0
TEXT
  8
_0-e_文字
 62
    4
 10
571.35052092178557
 20
342.4140503900307
 40
9
 41
1
 50
0
  1
内部・
  0
CIRCLE
  8
_0-d_寸法
  6
CONTINUOUS
 62
    4
 10
646.07133612767018
 20
376.18330362447932
 40
1.7254760742187489
  0
LINE
  8
_0-d_寸法
  6
CONTINUOUS
 62
    4
 10
545.28187409046654
 20
376.18332836846156
 11
651.45257344004028
 21
376.18332836846156
  0
LINE
  8
_0-d_寸法
  6
CONTINUOUS
 62
    4
 10
646.07133612767018
 20
370.18330362447938
 11
646.07133612767018
 21
503.68332836846156
  0
LINE
  8
_0-3_雑工事
  6
PHANTOM1
 62
    7
 10
497.29215374975058
 20
505.18332836846156
 11
371.29214859475451
 21
505.18332836846156
  0
LINE
  8
_0-6_
  6
CONTINUOUS
 62
    4
 10
810.29215952334653
 20
436.18332836846156
 11
810.29215952334653
 21
398.68332836846156
  0
LINE
  8
_0-6_
  6
CONTINUOUS
 62
    4
 10
497.29215374975058
 20
526.65567099472264
 11
490.26449637601166
 21
533.68332836846162
  0
LINE
  8
_0-6_
  6
CONTINUOUS
 62
    4
 10
497.29215374975058
 20
529.48409811946885
 11
493.09292350075782
 21
533.68332836846162
  0
LINE
  8
_0-6_
  6
CONTINUOUS
 62
    4
 10
497.29215374975058
 20
530.89831168184173
 11
494.50713706313093
 21
533.68332836846162
  0
LINE
  8
_0-6_
  6
CONTINUOUS
 62
    4
 10
497.29215374975058
 20
528.06988455709563
 11
491.67870993838466
 21
533.68332836846162
  0
LINE
  8
_0-6_
  6
CONTINUOUS
 62
    4
 10
497.29215374975058
 20
532.31252524421495
 11
495.69284033350903
 21
533.91183866045662
  0
LINE
  8
_0-6_
  6
CONTINUOUS
 62
    4
 10
495.7425671238795
 20
533.96156545082704
 11
497.29215374975058
 21
535.51115207669807
  0
LINE
  8
_0-6_
  6
CONTINUOUS
 62
    4
 10
497.29215374975058
 20
533.72673880658806
 11
496.36534816781057
 21
534.65354438852819
  0
LINE
  8
_0-6_
  6
CONTINUOUS
 62
    4
 10
497.29215374975058
 20
535.14095236896105
 11
497.03523880261884
 21
535.39786731609297
  0
LINE
  8
_0-3_雑工事
  6
CONTINUOUS
 62
    7
 10
495.49215374975063
 20
533.68332836846162
 11
497.29215374975058
 21
535.68332836846162
  0
LINE
  8
_0-3_雑工事
  6
CONTINUOUS
 62
    7
 10
497.29215374975058
 20
521.68332836846162
 11
497.29215374975058
 21
535.68332836846162
  0
LINE
  8
_0-6_
  6
CONTINUOUS
 62
    7
 10
485.29215374975058
 20
535.68332836846162
 11
371.29214859475451
 21
535.68332836846162
  0
LINE
  8
_0-6_
  6
CONTINUOUS
 62
    7
 10
485.29215374975058
 20
521.68332836846162
 11
371.29214859475451
 21
521.68332836846162
  0
SOLID
  8
_0-f_
  6
CONTINUOUS
 62
    7
 10
492.96890768841445
 20
535.0441932144397
 11
486.11887759444545
 21
542.13760702712216
 12
490.58331451669056
 22
544.6122848227626
 13
490.58331451669056
 23
544.6122848227626
  0
TEXT
  8
_0-e_文字
 62
    7
 10
330.80563990852852
 20
590.72924908845766
 40
9
 41
1
 50
0
  1
変性シリコーンシーリング
  0
TEXT
  8
_0-e_文字
 62
    4
 10
402.67506164184186
 20
582.43324789922031
 40
7.5000000000000853
 41
0.9999999999999864
 50
0
  1
(建築工事)
  0
LINE
  8
_0-f_
  6
CONTINUOUS
 62
    7
 10
443.12558814591364
 20
594.60603877921312
 11
458.58087615159241
 21
594.60603877921312
  0
LINE
  8
_0-f_
  6
CONTINUOUS
 62
    7
 10
458.58087615159241
 20
594.60603877921312
 11
492.96890768841445
 21
535.0441932144397
  0
TEXT
  8
_0-e_文字
 62
    4
 10
388.65052033883961
 20
554.17141076779012
 40
7.5000000000000853
 41
0.9999999999999932
 50
0
  1
(建築工事)
  0
TEXT
  8
_0-e_文字
 62
    7
 10
388.65052033883961
 20
562.83706815686674
 40
9
 41
1
 50
0
  1
防水テープ
  0
LINE
  8
_0-3_雑工事
  6
DASHED3
 62
    7
 10
496.29215374975064
 20
521.68332836846162
 11
496.29215374975064
 21
506.18332836846162
  0
LINE
  8
_0-3_雑工事
  6
CONTINUOUS
 62
    7
 10
812.09215952334648
 20
533.68332836846162
 11
810.29215952334653
 21
535.68332836846162
  0
LINE
  8
_0-3_雑工事
  6
CONTINUOUS
 62
    7
 10
810.29215952334653
 20
521.68332836846162
 11
810.29215952334653
 21
535.68332836846162
  0
SOLID
  8
_0-f_
  6
CONTINUOUS
 62
    7
 10
816.28951798933531
 20
534.07376017982619
 11
823.13954808330413
 21
541.16717399250865
 12
818.67511116105902
 22
543.6418517881491
 13
818.67511116105902
 23
543.6418517881491
  0
LINE
  8
_0-3_雑工事
  6
DASHED3
 62
    7
 10
811.29215436835
 20
506.18332836846162
 11
867.29215436835034
 21
506.18332836846162
  0
LINE
  8
_0-3_雑工事
  6
DASHED3
 62
    7
 10
811.29215436835
 20
521.68332836846162
 11
811.29215436835
 21
506.18332836846162
  0
SOLID
  8
_0-f_
  6
CONTINUOUS
 62
    7
 10
816.28951798933531
 20
506.8802249557782
 11
823.13954808330413
 21
513.97363876846066
 12
818.67511116105902
 22
516.44831656410111
 13
818.67511116105902
 23
516.44831656410111
  0
TEXT
  8
_0-e_文字
 62
    4
 10
941.11308062739067
 20
563.91538447988091
 40
7.4999999999999574
 41
1.0000000000000051
 50
0
  1
(建築工事)
  0
TEXT
  8
_0-e_文字
 62
    7
 10
856.16328722785113
 20
572.75502050837508
 40
9
 41
1
 50
0
  1
変成シリコーンシーリング
  0
LINE
  8
_0-f_
  6
CONTINUOUS
 62
    7
 10
841.49691672292681
 20
577.73436271725973
 11
816.28951798933531
 21
534.07376017982619
  0
LINE
  8
_0-f_
  6
CONTINUOUS
 62
    7
 10
854.56382257378709
 20
577.73436271725973
 11
841.49691672292681
 21
577.73436271725973
  0
LINE
  8
_0-f_
  6
CONTINUOUS
 62
    7
 10
845.49916727280288
 20
557.47294581133497
 11
816.28951798933531
 21
506.8802249557782
  0
LINE
  8
_0-f_
  6
CONTINUOUS
 62
    7
 10
854.56382257378709
 20
557.47294581133497
 11
845.49916727280288
 21
557.47294581133497
  0
TEXT
  8
_0-e_文字
 62
    4
 10
855.54496419542852
 20
544.07629875095938
 40
7.5000000000000853
 41
0.9999999999999932
 50
0
  1
(建築工事)
  0
TEXT
  8
_0-e_文字
 62
    7
 10
855.54496419542852
 20
552.741956140036
 40
9
 41
1
 50
0
  1
防水テープ
  0
LINE
  8
_0-6_
  6
CONTINUOUS
 62
    7
 10
442.29214859475451
 20
521.68332836846162
 11
487.29214859475451
 21
521.68332836846162
  0
LINE
  8
_0-6_
  6
CONTINUOUS
 62
    7
 10
487.29214859475451
 20
521.68332836846162
 11
487.29214859475451
 21
503.68332836846156
  0
LINE
  8
_0-6_
  6
CONTINUOUS
 62
    7
 10
487.29214859475451
 20
503.68332836846156
 11
442.29214859475451
 21
503.68332836846156
  0
LINE
  8
_0-6_
  6
CONTINUOUS
 62
    7
 10
442.29214859475451
 20
503.68332836846156
 11
442.29214859475451
 21
521.68332836846162
  0
LINE
  8
_0-6_
  6
CONTINUOUS
 62
    4
 10
487.29214859475451
 20
503.68332836846156
 11
442.29214859475451
 21
521.68332836846162
  0
LINE
  8
_0-1_躯体
  6
CONTINUOUS
 62
    7
 10
442.29214859475451
 20
521.68332836846162
 11
487.29214859475451
 21
521.68332836846162
  0
LINE
  8
_0-1_躯体
  6
CONTINUOUS
 62
    7
 10
487.29214859475451
 20
521.68332836846162
 11
487.29214859475451
 21
503.68332836846156
  0
LINE
  8
_0-1_躯体
  6
CONTINUOUS
 62
    7
 10
487.29214859475451
 20
503.68332836846156
 11
442.29214859475451
 21
503.68332836846156
  0
LINE
  8
_0-1_躯体
  6
CONTINUOUS
 62
    7
 10
442.29214859475451
 20
503.68332836846156
 11
442.29214859475451
 21
521.68332836846162
  0
LINE
  8
_0-1_躯体
  6
CONTINUOUS
 62
    4
 10
442.29214859475451
 20
503.68332836846156
 11
487.29214859475451
 21
521.68332836846162
  0
SOLID
  8
_0-f_
  6
CONTINUOUS
 62
    7
 10
485.04429573847864
 20
506.50984195581356
 11
478.19426564450953
 21
513.60325576849607
 12
482.65870256675464
 22
516.0779335641364
 13
482.65870256675464
 23
516.0779335641364
  0
LINE
  8
_0-f_
  6
CONTINUOUS
 62
    7
 10
435.99615463287847
 20
566.99521015704556
 11
450.12306840749721
 21
566.99521015704556
  0
LINE
  8
_0-f_
  6
CONTINUOUS
 62
    7
 10
450.12306840749721
 20
566.99521015704556
 11
485.04429573847864
 21
506.50984195581356
  0
LINE
  8
_0-3_雑工事
  6
CONTINUOUS
 62
    7
 10
487.29214859475468
 20
535.68332836846162
 11
487.29214859475468
 21
521.68332836846162
  0
LINE
  8
_0-1_躯体
  6
CONTINUOUS
 62
    7
 10
487.29214859475468
 20
535.68332836846162
 11
371.29214859475451
 21
535.68332836846162
  0
LINE
  8
_0-3_雑工事
  6
CONTINUOUS
 62
    7
 10
489.09214859475475
 20
533.68332836846162
 11
487.29214859475468
 21
535.68332836846162
  0
LINE
  8
_0-6_
  6
CONTINUOUS
 62
    7
 10
495.49215374975063
 20
533.68332836846162
 11
489.09214859475475
 21
533.68332836846162
  0
LINE
  8
_0-6_
  6
CONTINUOUS
 62
    4
 10
487.29214859475468
 20
529.75378760882154
 11
491.22168935439464
 21
533.68332836846162
  0
LINE
  8
_0-6_
  6
CONTINUOUS
 62
    4
 10
487.29214859475468
 20
528.33957404644866
 11
492.63590291676769
 21
533.68332836846162
  0
LINE
  8
_0-6_
  6
CONTINUOUS
 62
    4
 10
487.29214859475468
 20
526.92536048407544
 11
494.05011647914091
 21
533.68332836846162
  0
LINE
  8
_0-6_
  6
CONTINUOUS
 62
    4
 10
487.29214859475468
 20
532.58221473356764
 11
488.39326222964866
 21
533.68332836846162
  0
LINE
  8
_0-6_
  6
CONTINUOUS
 62
    4
 10
487.29214859475468
 20
531.16800117119476
 11
489.80747579202159
 21
533.68332836846162
  0
LINE
  8
_0-6_
  6
CONTINUOUS
 62
    4
 10
487.29214859475468
 20
533.99642829594063
 11
488.09120652384354
 21
534.79548622502955
  0
LINE
  8
_0-6_
  6
CONTINUOUS
 62
    4
 10
487.29214859475468
 20
535.41064185831374
 11
487.42131588903527
 21
535.53980915259433
  0
LINE
  8
_0-3_雑工事
  6
CONTINUOUS
 62
    7
 10
487.29214859475468
 20
525.68332836846162
 11
497.29215374975058
 21
525.68332836846162
  0
LINE
  8
_0-6_
  6
CONTINUOUS
 62
    4
 10
496.85028281363856
 20
525.68332836846162
 11
487.29214859475468
 21
535.24146258734538
  0
LINE
  8
_0-6_
  6
CONTINUOUS
 62
    4
 10
487.46433004151407
 20
525.68332836846162
 11
495.46433004151402
 21
533.68332836846162
  0
LINE
  8
_0-6_
  6
CONTINUOUS
 62
    4
 10
494.53539785337944
 20
525.68332836846162
 11
497.29215374975058
 21
528.44008426483242
  0
LINE
  8
_0-6_
  6
CONTINUOUS
 62
    4
 10
495.9496114157522
 20
525.68332836846162
 11
497.29215374975058
 21
527.02587070246
  0
LINE
  8
_0-6_
  6
CONTINUOUS
 62
    4
 10
493.12118429100639
 20
525.68332836846162
 11
497.29215374975058
 21
529.85429782720587
  0
LINE
  8
_0-6_
  6
CONTINUOUS
 62
    4
 10
491.70697072863322
 20
525.68332836846162
 11
497.29215374975058
 21
531.26851138957909
  0
LINE
  8
_0-6_
  6
CONTINUOUS
 62
    4
 10
489.77921500177308
 20
525.68332836846162
 11
487.29214859475468
 21
528.17039477547996
  0
LINE
  8
_0-6_
  6
CONTINUOUS
 62
    4
 10
488.36500143939992
 20
525.68332836846162
 11
487.29214859475468
 21
526.75618121310674
  0
LINE
  8
_0-6_
  6
CONTINUOUS
 62
    4
 10
491.19342856414619
 20
525.68332836846162
 11
487.29214859475468
 21
529.58460833785284
  0
LINE
  8
_0-6_
  6
CONTINUOUS
 62
    4
 10
492.60764212651924
 20
525.68332836846162
 11
487.29214859475468
 21
530.99882190022606
  0
LINE
  8
_0-6_
  6
CONTINUOUS
 62
    4
 10
488.87854360388707
 20
525.68332836846162
 11
497.29215374975058
 21
534.09693851432519
  0
LINE
  8
_0-6_
  6
CONTINUOUS
 62
    4
 10
490.29275716626012
 20
525.68332836846162
 11
497.29215374975058
 21
532.68272495195197
  0
LINE
  8
_0-6_
  6
CONTINUOUS
 62
    4
 10
494.02185568889229
 20
525.68332836846162
 11
487.29214859475468
 21
532.41303546259917
  0
LINE
  8
_0-6_
  6
CONTINUOUS
 62
    4
 10
495.43606925126539
 20
525.68332836846162
 11
487.29214859475468
 21
533.82724902497228
  0
LINE
  8
_0-6_
  6
CONTINUOUS
 62
    4
 10
496.94673250633144
 20
518.85717158163084
 11
490.46599180792367
 21
525.33791228003861
  0
LINE
  8
_0-6_
  6
CONTINUOUS
 62
    4
 10
497.24189606306021
 20
519.97622158727518
 11
491.58504181356807
 21
525.63307583676738
  0
LINE
  8
_0-6_
  6
CONTINUOUS
 62
    4
 10
497.24189606306021
 20
521.39043514964851
 11
492.99925537594129
 21
525.63307583676738
  0
LINE
  8
_0-6_
  6
CONTINUOUS
 62
    4
 10
495.82768250068722
 20
517.14779446252885
 11
488.75661468882174
 21
524.21886227439438
  0
LINE
  8
_0-6_
  6
CONTINUOUS
 62
    4
 10
496.46335699107874
 20
517.92633353451038
 11
489.53515376080333
 21
524.85453676478596
  0
LINE
  8
_0-6_
  6
CONTINUOUS
 62
    4
 10
495.04914342870563
 20
516.51211997213727
 11
488.12094019843016
 21
523.44032320241274
  0
LINE
  8
_0-6_
  6
CONTINUOUS
 62
    4
 10
494.11830538158517
 20
525.33791228003861
 11
487.63756468317735
 21
518.85717158163072
  0
LINE
  8
_0-6_
  6
CONTINUOUS
 62
    4
 10
492.99925537594089
 20
525.63307583676738
 11
487.34240112644858
 21
519.97622158727506
  0
LINE
  8
_0-6_
  6
CONTINUOUS
 62
    4
 10
491.58504181356773
 20
525.63307583676738
 11
487.34240112644858
 21
521.39043514964817
  0
LINE
  8
_0-6_
  6
CONTINUOUS
 62
    4
 10
495.82768250068716
 20
524.21886227439438
 11
488.75661468882174
 21
517.14779446252874
  0
LINE
  8
_0-6_
  6
CONTINUOUS
 62
    4
 10
495.04914342870563
 20
524.85453676478585
 11
488.12094019843016
 21
517.92633353451026
  0
LINE
  8
_0-6_
  6
CONTINUOUS
 62
    4
 10
496.46335699107874
 20
523.44032320241274
 11
489.53515376080327
 21
516.51211997213727
  0
LINE
  8
_0-6_
  6
CONTINUOUS
 62
    4
 10
496.94673250633144
 20
522.5094851552924
 11
490.46599180792367
 21
516.02874445688462
  0
LINE
  8
_0-6_
  6
CONTINUOUS
 62
    4
 10
497.24189606306021
 20
521.39043514964794
 11
491.58504181356807
 21
515.73358090015574
  0
LINE
  8
_0-6_
  6
CONTINUOUS
 62
    4
 10
497.24189606306021
 20
519.97622158727472
 11
492.99925537594129
 21
515.73358090015586
  0
LINE
  8
_0-6_
  6
CONTINUOUS
 62
    4
 10
494.11830538158529
 20
516.02874445688462
 11
487.63756468317735
 21
522.5094851552924
  0
LINE
  8
_0-6_
  6
CONTINUOUS
 62
    4
 10
491.5850418135679
 20
515.73358090015574
 11
487.34240112644858
 21
519.97622158727518
  0
LINE
  8
_0-6_
  6
CONTINUOUS
 62
    4
 10
492.99925537594106
 20
515.73358090015586
 11
487.34240112644858
 21
521.39043514964817
  0
LINE
  8
ADD_LINE
  6
DOT
 62
    9
 10
492.29214859475439
 20
515.68332836846162
 11
492.29214859475439
 21
525.68332836846162
  0
LINE
  8
ADD_LINE
  6
DOT
 62
    9
 10
497.29214859475445
 20
520.68332836846162
 11
487.29214859475439
 21
520.6833283684615
  0
CIRCLE
  8
_0-3_雑工事
  6
CONTINUOUS
 62
    7
 10
492.29214859475439
 20
520.68332836846162
 40
4.9999999999999929
  0
LINE
  8
_0-6_
  6
CONTINUOUS
 62
    4
 10
800.2921595233463
 20
533.96887748670065
 11
800.57771482758096
 21
533.68332218246599
  0
LINE
  8
_0-6_
  6
CONTINUOUS
 62
    4
 10
810.29215436835011
 20
526.65567099472264
 11
817.31981174208909
 21
533.68332836846162
  0
LINE
  8
_0-6_
  6
CONTINUOUS
 62
    4
 10
810.29215436835011
 20
529.48409811946885
 11
814.49138461734299
 21
533.68332836846162
  0
LINE
  8
_0-6_
  6
CONTINUOUS
 62
    4
 10
810.29215436835011
 20
530.89831168184173
 11
813.07717105496977
 21
533.68332836846162
  0
LINE
  8
_0-6_
  6
CONTINUOUS
 62
    4
 10
810.29215436835011
 20
528.06988455709563
 11
815.90559817971598
 21
533.68332836846162
  0
LINE
  8
_0-6_
  6
CONTINUOUS
 62
    4
 10
810.29215436835011
 20
532.31252524421495
 11
811.89146778459167
 21
533.91183866045662
  0
LINE
  8
_0-6_
  6
CONTINUOUS
 62
    4
 10
811.84174099422114
 20
533.96156545082704
 11
810.29215436835011
 21
535.51115207669807
  0
LINE
  8
_0-6_
  6
CONTINUOUS
 62
    4
 10
810.29215436835011
 20
533.72673880658806
 11
811.21895995029024
 21
534.65354438852819
  0
LINE
  8
_0-6_
  6
CONTINUOUS
 62
    4
 10
810.29215436835011
 20
535.14095236896105
 11
810.5490693154818
 21
535.39786731609297
  0
LINE
  8
_0-6_
  6
CONTINUOUS
 62
    7
 10
812.09215436835007
 20
533.68332836846162
 11
818.49215952334589
 21
533.68332836846162
  0
LINE
  8
_0-6_
  6
CONTINUOUS
 62
    4
 10
820.29215952334596
 20
529.75378760882154
 11
816.362618763706
 21
533.68332836846162
  0
LINE
  8
_0-6_
  6
CONTINUOUS
 62
    4
 10
820.29215952334596
 20
528.33957404644866
 11
814.948405201333
 21
533.68332836846162
  0
LINE
  8
_0-6_
  6
CONTINUOUS
 62
    4
 10
820.29215952334596
 20
526.92536048407533
 11
813.53419163895978
 21
533.68332836846162
  0
LINE
  8
_0-6_
  6
CONTINUOUS
 62
    4
 10
820.29215952334596
 20
532.58221473356764
 11
819.19104588845221
 21
533.68332836846162
  0
LINE
  8
_0-6_
  6
CONTINUOUS
 62
    4
 10
820.29215952334596
 20
531.16800117119476
 11
817.7768323260791
 21
533.68332836846162
  0
LINE
  8
_0-6_
  6
CONTINUOUS
 62
    4
 10
820.29215952334596
 20
533.99642829594063
 11
819.49310159425704
 21
534.79548622502955
  0
LINE
  8
_0-6_
  6
CONTINUOUS
 62
    4
 10
820.29215952334596
 20
535.41064185831374
 11
820.16299222906537
 21
535.53980915259422
  0
LINE
  8
_0-6_
  6
CONTINUOUS
 62
    4
 10
810.73402530446208
 20
525.68332836846162
 11
820.29215952334596
 21
535.24146258734527
  0
LINE
  8
_0-6_
  6
CONTINUOUS
 62
    4
 10
820.11997807658668
 20
525.68332836846162
 11
812.11997807658668
 21
533.68332836846162
  0
LINE
  8
_0-6_
  6
CONTINUOUS
 62
    4
 10
813.04891026472126
 20
525.68332836846162
 11
810.29215436835011
 21
528.44008426483242
  0
LINE
  8
_0-6_
  6
CONTINUOUS
 62
    4
 10
811.63469670234861
 20
525.68332836846162
 11
810.29215436835011
 21
527.02587070246
  0
LINE
  8
_0-6_
  6
CONTINUOUS
 62
    4
 10
814.46312382709425
 20
525.68332836846162
 11
810.29215436835011
 21
529.85429782720576
  0
LINE
  8
_0-6_
  6
CONTINUOUS
 62
    4
 10
815.87733738946758
 20
525.68332836846162
 11
810.29215436835011
 21
531.26851138957898
  0
LINE
  8
_0-6_
  6
CONTINUOUS
 62
    4
 10
817.8050931163275
 20
525.68332836846162
 11
820.29215952334596
 21
528.17039477547985
  0
LINE
  8
_0-6_
  6
CONTINUOUS
 62
    4
 10
819.21930667870072
 20
525.68332836846162
 11
820.29215952334596
 21
526.75618121310674
  0
LINE
  8
_0-6_
  6
CONTINUOUS
 62
    4
 10
816.39087955395462
 20
525.68332836846162
 11
820.29215952334596
 21
529.58460833785284
  0
LINE
  8
_0-6_
  6
CONTINUOUS
 62
    4
 10
814.9766659915814
 20
525.68332836846162
 11
820.29215952334596
 21
530.99882190022606
  0
LINE
  8
_0-6_
  6
CONTINUOUS
 62
    4
 10
818.70576451421357
 20
525.68332836846162
 11
810.29215436835011
 21
534.09693851432519
  0
LINE
  8
_0-6_
  6
CONTINUOUS
 62
    4
 10
817.29155095184058
 20
525.68332836846162
 11
810.29215436835011
 21
532.68272495195197
  0
LINE
  8
_0-6_
  6
CONTINUOUS
 62
    4
 10
813.56245242920841
 20
525.68332836846162
 11
820.29215952334596
 21
532.41303546259917
  0
LINE
  8
_0-6_
  6
CONTINUOUS
 62
    4
 10
812.14823886683541
 20
525.68332836846162
 11
820.29215952334596
 21
533.82724902497228
  0
LINE
  8
_0-6_
  6
CONTINUOUS
 62
    4
 10
810.63757561176919
 20
518.85717158163084
 11
817.11831631017697
 21
525.33791228003861
  0
LINE
  8
_0-6_
  6
CONTINUOUS
 62
    4
 10
810.34241205504043
 20
519.97622158727518
 11
815.99926630453274
 21
525.63307583676738
  0
LINE
  8
_0-6_
  6
CONTINUOUS
 62
    4
 10
810.34241205504043
 20
521.39043514964851
 11
814.58505274215941
 21
525.63307583676738
  0
LINE
  8
_0-6_
  6
CONTINUOUS
 62
    4
 10
811.75662561741365
 20
517.14779446252885
 11
818.82769342927907
 21
524.21886227439427
  0
LINE
  8
_0-6_
  6
CONTINUOUS
 62
    4
 10
811.12095112702195
 20
517.92633353451038
 11
818.04915435729754
 21
524.85453676478596
  0
LINE
  8
_0-6_
  6
CONTINUOUS
 62
    4
 10
812.53516468939517
 20
516.51211997213727
 11
819.46336791967065
 21
523.44032320241274
  0
LINE
  8
_0-6_
  6
CONTINUOUS
 62
    4
 10
813.46600273651552
 20
525.33791228003861
 11
819.94674343492329
 21
518.85717158163072
  0
LINE
  8
_0-6_
  6
CONTINUOUS
 62
    4
 10
814.58505274215975
 20
525.63307583676738
 11
820.24190699165206
 21
519.97622158727506
  0
LINE
  8
_0-6_
  6
CONTINUOUS
 62
    4
 10
815.99926630453308
 20
525.63307583676738
 11
820.24190699165206
 21
521.39043514964817
  0
LINE
  8
_0-6_
  6
CONTINUOUS
 62
    4
 10
811.75662561741365
 20
524.21886227439427
 11
818.82769342927907
 21
517.14779446252874
  0
LINE
  8
_0-6_
  6
CONTINUOUS
 62
    4
 10
812.53516468939517
 20
524.85453676478585
 11
819.46336791967065
 21
517.92633353451026
  0
LINE
  8
_0-6_
  6
CONTINUOUS
 62
    4
 10
811.12095112702195
 20
523.44032320241263
 11
818.04915435729754
 21
516.51211997213727
  0
LINE
  8
_0-6_
  6
CONTINUOUS
 62
    4
 10
810.63757561176919
 20
522.5094851552924
 11
817.11831631017697
 21
516.02874445688462
  0
LINE
  8
_0-6_
  6
CONTINUOUS
 62
    4
 10
810.34241205504043
 20
521.39043514964794
 11
815.99926630453274
 21
515.73358090015574
  0
LINE
  8
_0-6_
  6
CONTINUOUS
 62
    4
 10
810.34241205504043
 20
519.97622158727472
 11
814.58505274215941
 21
515.73358090015586
  0
LINE
  8
_0-6_
  6
CONTINUOUS
 62
    4
 10
813.46600273651529
 20
516.02874445688462
 11
819.94674343492329
 21
522.5094851552924
  0
LINE
  8
_0-6_
  6
CONTINUOUS
 62
    4
 10
815.99926630453274
 20
515.73358090015574
 11
820.24190699165206
 21
519.97622158727518
  0
LINE
  8
_0-6_
  6
CONTINUOUS
 62
    4
 10
814.58505274215975
 20
515.73358090015586
 11
820.24190699165206
 21
521.39043514964806
  0
LINE
  8
ADD_LINE
  6
DOT
 62
    9
 10
815.2921595233463
 20
515.68332836846162
 11
815.2921595233463
 21
525.68332836846162
  0
LINE
  8
ADD_LINE
  6
DOT
 62
    9
 10
810.2921595233463
 20
520.68332836846162
 11
820.2921595233463
 21
520.6833283684615
  0
LINE
  8
_0-3_雑工事
  6
CONTINUOUS
 62
    7
 10
818.49215952334623
 20
533.68332836846162
 11
820.2921595233463
 21
535.68332836846162
  0
LINE
  8
_0-3_雑工事
  6
CONTINUOUS
 62
    7
 10
820.2921595233463
 20
535.68332836846162
 11
820.2921595233463
 21
521.68332836846162
  0
LINE
  8
_0-1_躯体
  6
CONTINUOUS
 62
    7
 10
865.2921595233463
 20
521.68332836846162
 11
820.2921595233463
 21
521.68332836846162
  0
LINE
  8
_0-1_躯体
  6
CONTINUOUS
 62
    7
 10
820.2921595233463
 20
521.68332836846162
 11
820.2921595233463
 21
503.68332836846156
  0
LINE
  8
_0-1_躯体
  6
CONTINUOUS
 62
    7
 10
820.2921595233463
 20
503.68332836846156
 11
865.2921595233463
 21
503.68332836846156
  0
LINE
  8
_0-1_躯体
  6
CONTINUOUS
 62
    7
 10
865.2921595233463
 20
503.68332836846156
 11
865.2921595233463
 21
521.68332836846162
  0
LINE
  8
_0-1_躯体
  6
CONTINUOUS
 62
    4
 10
865.2921595233463
 20
503.68332836846156
 11
820.2921595233463
 21
521.68332836846162
  0
LINE
  8
_0-1_躯体
  6
CONTINUOUS
 62
    7
 10
820.2921595233463
 20
535.68332836846162
 11
936.29215952334619
 21
535.68332836846162
  0
LINE
  8
_0-3_雑工事
  6
CONTINUOUS
 62
    7
 10
810.2921595233463
 20
525.68332836846162
 11
820.29216467834226
 21
525.68332836846162
  0
CIRCLE
  8
_0-3_雑工事
  6
CONTINUOUS
 62
    7
 10
815.29215952334607
 20
520.68332836846162
 40
4.9999999999999929
  0
TEXT
  8
_f-0_
 62
    4
 10
1047.8177894717901
 20
58.728687074509821
 40
10.5
 41
1
 50
0
  1
S=1:3
  0
LINE
  8
_0-7_ハッチ
  6
CONTINUOUS
 62
    4
 10
517.41916623643056
 20
430.6833531124438
 11
538.41916128763387
 21
451.68334816364739
  0
LINE
  8
_0-7_ハッチ
  6
CONTINUOUS
 62
    4
 10
497.29215374975058
 20
518.31941407859574
 11
514.65606803961657
 21
535.68332836846162
  0
LINE
  8
_0-7_ハッチ
  6
CONTINUOUS
 62
    4
 10
794.70563289425218
 20
430.6833531124438
 11
810.29215952334653
 21
446.26987974153838
  0
LINE
  8
_0-7_ハッチ
  6
CONTINUOUS
 62
    4
 10
767.76486453104417
 20
430.6833531124438
 11
810.29215952334653
 21
473.21064810474661
  0
CIRCLE
  8
_0-d_寸法
  6
CONTINUOUS
 62
    4
 10
564.56214880104267
 20
535.68332836846162
 40
1.7254760742187489
  0
LINE
  8
_0-d_寸法
  6
CONTINUOUS
 62
    4
 10
544.33214878327283
 20
535.68332836846162
 11
570.5621487786907
 21
535.68332836846162
  0
LINE
  8
_0-d_寸法
  6
CONTINUOUS
 62
    4
 10
564.56214880104267
 20
535.68332836846162
 11
564.56214880104267
 21
540.45332835069189
  0
LINE
  8
_0-d_寸法
  6
CONTINUOUS
 62
    4
 10
544.33214878327283
 20
479.68334156525208
 11
570.5621487786907
 21
479.68334156525208
  0
CIRCLE
  8
_0-d_寸法
  6
CONTINUOUS
 62
    4
 10
564.56214880104267
 20
479.68334156525208
 40
1.7254760742187489
  0
LINE
  8
_0-d_寸法
  6
CONTINUOUS
 62
    4
 10
564.56214880104267
 20
479.68334156525208
 11
564.56214880104267
 21
474.91334158302175
  0
LINE
  8
_0-d_寸法
  6
CONTINUOUS
 62
    4
 10
564.56214880104267
 20
479.68334156525208
 11
564.56214880104267
 21
535.68332836846162
  0
TEXT
  8
_0-d_寸法
 62
    4
 10
564.05914177774969
 20
499.16980876266234
 40
9
 41
1
 50
90
  1
56
  0
TEXT
  8
_0-d_寸法
 62
    4
 10
644.62987865858463
 20
476.68183243701066
 40
9
 41
1
 50
90
  1
105
  0
CIRCLE
  8
_0-d_寸法
  6
CONTINUOUS
 62
    4
 10
646.07133612767018
 20
430.6833531124438
 40
1.7254760742187489
  0
CIRCLE
  8
_0-d_寸法
  6
CONTINUOUS
 62
    4
 10
646.07133612767018
 20
535.6833531124438
 40
1.7254760742187489
  0
LINE
  8
_0-d_寸法
  6
CONTINUOUS
 62
    4
 10
625.84133610990045
 20
430.6833531124438
 11
652.07133610531832
 21
430.6833531124438
  0
LINE
  8
_0-d_寸法
  6
CONTINUOUS
 62
    4
 10
620.93833610990032
 20
430.6833531124438
 11
625.1683361053183
 21
430.6833531124438
  0
LINE
  8
_0-d_寸法
  6
CONTINUOUS
 62
    4
 10
646.07133612767018
 20
498.18335311244391
 11
646.07133612767018
 21
540.4533530946743
  0
LINE
  8
_0-d_寸法
  6
CONTINUOUS
 62
    4
 10
545.28187409046654
 20
535.6833531124438
 11
652.07133610531832
 21
535.6833531124438
  0
LINE
  8
_0-a_
  6
CONTINUOUS
 62
    4
 10
753.59215952334625
 20
421.63335311244396
 11
749.49774210059093
 21
406.33527558232186
  0
LINE
  8
_0-a_
  6
CONTINUOUS
 62
    4
 10
753.59215952334625
 20
410.73335311244398
 11
753.09215952334625
 21
410.73335311244398
  0
LINE
  8
_0-a_
  6
CONTINUOUS
 62
    4
 10
752.2921595233463
 20
411.23335311244387
 11
752.2921595233463
 21
412.23335311244398
  0
LINE
  8
_0-a_
  6
CONTINUOUS
 62
    4
 10
753.59215952334625
 20
408.23335311244387
 11
753.59215952334625
 21
410.73335311244398
  0
LINE
  8
_0-a_
  6
CONTINUOUS
 62
    4
 10
755.39215952334609
 20
409.23335311244398
 11
755.39215952334621
 21
423.73335311244381
  0
LINE
  8
_0-a_
  6
CONTINUOUS
 62
    4
 10
753.59215952334625
 20
428.73335311244398
 11
754.89215952334621
 21
428.73335311244398
  0
LINE
  8
_0-a_
  6
CONTINUOUS
 62
    4
 10
755.39215952334621
 20
423.73335311244381
 11
754.89215952334621
 21
428.73335311244398
  0
LINE
  8
_0-a_
  6
CONTINUOUS
 62
    4
 10
752.79215952334607
 20
410.73335311244398
 11
753.59215952334625
 21
410.73335311244398
  0
LINE
  8
_0-a_
  6
CONTINUOUS
 62
    4
 10
752.2921595233463
 20
412.23335311244398
 11
753.59215952334625
 21
412.23335311244398
  0
LINE
  8
_0-a_
  6
CONTINUOUS
 62
    4
 10
752.2921595233463
 20
413.83335311244394
 11
753.59215952334625
 21
413.83335311244394
  0
LINE
  8
_0-a_
  6
CONTINUOUS
 62
    4
 10
752.7921595233463
 20
415.33335311244389
 11
753.59215952334625
 21
415.33335311244389
  0
LINE
  8
_0-a_
  6
CONTINUOUS
 62
    4
 10
752.2921595233463
 20
413.83335311244394
 11
752.2921595233463
 21
414.83335311244389
  0
LINE
  8
_0-a_
  6
CONTINUOUS
 62
    4
 10
753.59215952334625
 20
415.33335311244389
 11
753.59215952334625
 21
428.73335311244398
  0
LINE
  8
_0-a_
  6
CONTINUOUS
 62
    4
 10
753.59215952334625
 20
412.23335311244398
 11
753.59215952334625
 21
413.83335311244394
  0
ARC
  8
_0-a_
  6
CONTINUOUS
 62
    4
 10
752.79215952334607
 20
411.23335311244387
 40
0.4999999999999997
 50
179.99999999999937
 51
270
  0
ARC
  8
_0-a_
  6
CONTINUOUS
 62
    4
 10
752.7921595233463
 20
414.83335311244389
 40
0.4999999999999997
 50
89.999999999999801
 51
180
  0
LINE
  8
_0-a_
  6
CONTINUOUS
 62
    4
 10
753.59215952334625
 20
408.23335311244387
 11
754.39215952334621
 21
408.23335311244387
  0
LINE
  8
_0-a_
  6
CONTINUOUS
 62
    4
 10
755.39215952334609
 20
409.23335311244398
 11
754.39215952334621
 21
408.23335311244387
  0
LINE
  8
_0-a_
  6
CONTINUOUS
 62
    4
 10
731.53291485963791
 20
417.93335311244402
 11
712.4084747531432
 21
417.93335311244402
  0
LINE
  8
_0-a_
  6
CONTINUOUS
 62
    4
 10
731.53291485963791
 20
414.43335311244408
 11
712.40847475314342
 21
414.43335311244391
  0
LINE
  8
_0-a_
  6
CONTINUOUS
 62
    4
 10
731.53291485963791
 20
412.68335311244397
 11
732.73291485963796
 21
412.6833531124438
  0
LINE
  8
_0-a_
  6
CONTINUOUS
 62
    4
 10
731.53291485963791
 20
419.68335311244391
 11
732.73291485963796
 21
419.68335311244391
  0
LINE
  8
_0-a_
  6
CONTINUOUS
 62
    4
 10
732.73291485963796
 20
412.6833531124438
 11
732.73291485963796
 21
419.68335311244391
  0
LINE
  8
_0-a_
  6
CONTINUOUS
 62
    4
 10
731.53291485963791
 20
412.6833531124438
 11
731.53291485963791
 21
419.68335311244391
  0
LINE
  8
_0-a_
  6
CONTINUOUS
 62
    4
 10
687.22230684325223
 20
414.43335311244408
 11
676.29215451826667
 21
414.43335311244408
  0
LINE
  8
_0-a_
  6
CONTINUOUS
 62
    4
 10
687.22230684325223
 20
417.93335311244402
 11
676.29215451826667
 21
417.93335311244402
  0
LINE
  8
_0-a_
  6
CONTINUOUS
 62
    4
 10
699.75389627290872
 20
420.93335311244402
 11
699.75389627290872
 21
411.43335311244408
  0
LINE
  8
_0-a_
  6
CONTINUOUS
 62
    4
 10
701.75389627290883
 20
411.43335311244408
 11
701.75389627290883
 21
420.93335311244402
  0
LINE
  8
_0-a_
  6
CONTINUOUS
 62
    4
 10
697.70847475314326
 20
420.43335311244408
 11
698.70847475314326
 21
420.43335311244408
  0
LINE
  8
_0-a_
  6
CONTINUOUS
 62
    4
 10
697.70847475314326
 20
411.93335311244402
 11
698.70847475314326
 21
411.93335311244402
  0
LINE
  8
_0-a_
  6
CONTINUOUS
 62
    4
 10
697.70847475314326
 20
411.93335311244402
 11
697.70847475314326
 21
420.43335311244408
  0
LINE
  8
_0-a_
  6
CONTINUOUS
 62
    4
 10
698.70847475314326
 20
411.93335311244402
 11
698.70847475314326
 21
420.43335311244408
  0
LINE
  8
_0-a_
  6
CONTINUOUS
 62
    4
 10
705.70847475314326
 20
414.18335311244402
 11
705.70847475314326
 21
418.18335311244408
  0
LINE
  8
_0-a_
  6
CONTINUOUS
 62
    4
 10
705.70847475314326
 20
418.18335311244408
 11
701.75389627290883
 21
418.18335311244408
  0
LINE
  8
_0-a_
  6
CONTINUOUS
 62
    4
 10
705.70847475314326
 20
414.18335311244402
 11
701.75389627290883
 21
414.18335311244402
  0
LINE
  8
_0-a_
  6
CONTINUOUS
 62
    4
 10
697.42003033409878
 20
411.48335311244421
 11
697.4200303340981
 21
420.88335311244418
  0
ARC
  8
_0-a_
  6
CONTINUOUS
 62
    4
 10
701.30847475314317
 20
416.18335311244419
 40
6.0999999999999979
 50
129.6019270811104
 51
230.3980729188896
  0
LINE
  8
_0-a_
  6
CONTINUOUS
 62
    4
 10
697.70847475314326
 20
420.88335311244418
 11
697.4200303340981
 21
420.88335311244418
  0
LINE
  8
_0-a_
  6
CONTINUOUS
 62
    4
 10
697.70847475314326
 20
411.48335311244404
 11
697.4200303340981
 21
411.48335311244421
  0
LINE
  8
_0-a_
  6
CONTINUOUS
 62
    4
 10
697.70847475314326
 20
411.48335311244421
 11
697.70847475314326
 21
420.88335311244418
  0
LINE
  8
_0-a_
  6
CONTINUOUS
 62
    4
 10
753.59215952334625
 20
417.93335311244402
 11
732.73291485963773
 21
417.93335311244402
  0
LINE
  8
_0-a_
  6
CONTINUOUS
 62
    4
 10
745.7921595233463
 20
401.68335311244408
 11
676.29215451826667
 21
401.68335311244391
  0
LINE
  8
_0-a_
  6
CONTINUOUS
 62
    4
 10
699.75389627290872
 20
418.18335311244408
 11
698.70847475314326
 21
418.18335311244408
  0
LINE
  8
_0-a_
  6
CONTINUOUS
 62
    4
 10
699.75389627290872
 20
414.18335311244402
 11
698.70847475314326
 21
414.18335311244402
  0
LINE
  8
_0-a_
  6
CONTINUOUS
 62
    4
 10
752.2921595233463
 20
414.43335311244408
 11
732.73291485963773
 21
414.43335311244408
  0
LINE
  8
_0-a_
  6
CONTINUOUS
 62
    4
 10
745.7921595233463
 20
430.6833531124438
 11
676.29215451826667
 21
430.6833531124438
  0
ARC
  8
_0-a_
  6
CONTINUOUS
 62
    4
 10
765.79215952334641
 20
421.68335311244397
 40
0.5
 50
90
 51
270
  0
LINE
  8
_0-a_
  6
CONTINUOUS
 62
    4
 10
765.79215952334641
 20
422.18335311244391
 11
767.2921595233463
 21
422.18335311244391
  0
LINE
  8
_0-a_
  6
CONTINUOUS
 62
    4
 10
767.2921595233463
 20
422.18335311244391
 11
767.2921595233463
 21
428.583353112444
  0
LINE
  8
_0-a_
  6
CONTINUOUS
 62
    4
 10
767.2921595233463
 20
428.583353112444
 11
766.29215952334641
 21
428.583353112444
  0
LINE
  8
_0-a_
  6
CONTINUOUS
 62
    4
 10
766.29215952334641
 20
428.583353112444
 11
766.06121941567062
 21
428.18335311244391
  0
LINE
  8
_0-a_
  6
CONTINUOUS
 62
    4
 10
766.06121941567062
 20
428.18335311244391
 11
764.5146182073704
 21
428.74626991654532
  0
ARC
  8
_0-a_
  6
CONTINUOUS
 62
    4
 10
764.64458586183423
 20
429.10335311244404
 40
0.3800000000000257
 50
90.000000000000739
 51
249.99999999999829
  0
LINE
  8
_0-a_
  6
CONTINUOUS
 62
    4
 10
764.64458586183423
 20
429.48335311244404
 11
767.2921595233463
 21
429.48335311244404
  0
LINE
  8
_0-a_
  6
CONTINUOUS
 62
    4
 10
767.2921595233463
 20
429.48335311244404
 11
767.2921595233463
 21
430.68335311244397
  0
LINE
  8
_0-a_
  6
CONTINUOUS
 62
    4
 10
767.2921595233463
 20
430.68335311244397
 11
767.79215952334641
 21
430.68335311244397
  0
LINE
  8
_0-a_
  6
CONTINUOUS
 62
    4
 10
767.79215952334641
 20
430.68335311244397
 11
768.2921595233463
 21
430.18335311244391
  0
LINE
  8
_0-a_
  6
CONTINUOUS
 62
    4
 10
768.2921595233463
 20
430.18335311244391
 11
768.2921595233463
 21
402.18335311244397
  0
LINE
  8
_0-a_
  6
CONTINUOUS
 62
    4
 10
768.2921595233463
 20
402.18335311244397
 11
767.79215952334641
 21
401.68335311244391
  0
LINE
  8
_0-a_
  6
CONTINUOUS
 62
    4
 10
767.79215952334641
 20
401.68335311244391
 11
767.2921595233463
 21
401.68335311244391
  0
LINE
  8
_0-a_
  6
CONTINUOUS
 62
    4
 10
767.2921595233463
 20
401.68335311244391
 11
767.2921595233463
 21
402.88335311244396
  0
LINE
  8
_0-a_
  6
CONTINUOUS
 62
    4
 10
767.2921595233463
 20
402.88335311244396
 11
764.64458586183423
 21
402.88335311244396
  0
ARC
  8
_0-a_
  6
CONTINUOUS
 62
    4
 10
764.64458586183423
 20
403.26335311244395
 40
0.3799999999999831
 50
110.00000000000293
 51
270.00000000000045
  0
LINE
  8
_0-a_
  6
CONTINUOUS
 62
    4
 10
764.5146182073704
 20
403.62043630834256
 11
766.06121941567062
 21
404.18335311244391
  0
LINE
  8
_0-a_
  6
CONTINUOUS
 62
    4
 10
766.06121941567062
 20
404.18335311244391
 11
766.29215952334641
 21
403.78335311244393
  0
LINE
  8
_0-a_
  6
CONTINUOUS
 62
    4
 10
766.29215952334641
 20
403.78335311244393
 11
767.2921595233463
 21
403.78335311244393
  0
LINE
  8
_0-a_
  6
CONTINUOUS
 62
    4
 10
767.2921595233463
 20
403.78335311244393
 11
767.2921595233463
 21
410.18335311244391
  0
LINE
  8
_0-a_
  6
CONTINUOUS
 62
    4
 10
767.2921595233463
 20
410.18335311244391
 11
765.79215952334641
 21
410.18335311244391
  0
ARC
  8
_0-a_
  6
CONTINUOUS
 62
    4
 10
765.79215952334641
 20
410.68335311244391
 40
0.5
 50
90
 51
270
  0
LINE
  8
_0-a_
  6
CONTINUOUS
 62
    4
 10
765.79215952334641
 20
411.18335311244397
 11
767.2921595233463
 21
411.18335311244397
  0
LINE
  8
_0-a_
  6
CONTINUOUS
 62
    4
 10
767.2921595233463
 20
411.18335311244397
 11
767.2921595233463
 21
421.18335311244391
  0
LINE
  8
_0-a_
  6
CONTINUOUS
 62
    4
 10
767.2921595233463
 20
421.18335311244391
 11
765.79215952334641
 21
421.18335311244391
  0
LINE
  8
_0-a_
  6
CONTINUOUS
 62
    4
 10
756.39215952334621
 20
407.18335311244391
 11
755.39215952334609
 21
407.18335311244391
  0
LINE
  8
_0-a_
  6
CONTINUOUS
 62
    4
 10
755.39215952334609
 20
407.18335311244391
 11
755.39215952334609
 21
425.18335311244391
  0
LINE
  8
_0-a_
  6
CONTINUOUS
 62
    4
 10
755.39215952334609
 20
425.18335311244391
 11
756.39215952334621
 21
425.18335311244391
  0
LINE
  8
_0-a_
  6
CONTINUOUS
 62
    4
 10
756.39215952334621
 20
425.18335311244391
 11
756.39215952334621
 21
407.18335311244391
  0
LINE
  8
_0-a_
  6
CONTINUOUS
 62
    4
 10
766.29215952334641
 20
427.98335311244398
 11
763.99215952334612
 21
427.98335311244398
  0
LINE
  8
_0-a_
  6
CONTINUOUS
 62
    4
 10
763.99215952334612
 20
427.98335311244398
 11
763.99215952334612
 21
429.48335311244398
  0
LINE
  8
_0-a_
  6
CONTINUOUS
 62
    4
 10
763.99215952334612
 20
429.48335311244398
 11
766.99215952334612
 21
429.48335311244398
  0
ARC
  8
_0-a_
  6
CONTINUOUS
 62
    4
 10
766.99215952334612
 20
429.78335311244382
 40
0.3000000000000114
 50
269.99999999998909
 51
359.99999999998909
  0
LINE
  8
_0-a_
  6
CONTINUOUS
 62
    4
 10
767.2921595233463
 20
429.78335311244382
 11
767.2921595233463
 21
430.68335311244397
  0
LINE
  8
_0-a_
  6
CONTINUOUS
 62
    4
 10
767.2921595233463
 20
430.68335311244397
 11
758.24215952334612
 21
430.68335311244397
  0
LINE
  8
_0-a_
  6
CONTINUOUS
 62
    4
 10
745.29215952334641
 20
430.18335311244391
 11
745.29215952334641
 21
429.43335311244391
  0
LINE
  8
_0-a_
  6
CONTINUOUS
 62
    4
 10
745.7921595233463
 20
428.93335311244391
 11
752.29215952334641
 21
428.93335311244391
  0
LINE
  8
_0-a_
  6
CONTINUOUS
 62
    4
 10
752.29215952334641
 20
428.93335311244391
 11
752.29215952334641
 21
422.1333531124439
  0
LINE
  8
_0-a_
  6
CONTINUOUS
 62
    4
 10
752.7921595233463
 20
421.63335311244396
 11
753.59215952334603
 21
421.63335311244396
  0
LINE
  8
_0-a_
  6
CONTINUOUS
 62
    4
 10
753.59215952334603
 20
421.63335311244396
 11
753.59215952334625
 21
428.43335311244397
  0
ARC
  8
_0-a_
  6
CONTINUOUS
 62
    4
 10
754.09215952334625
 20
428.43335311244397
 40
0.5
 50
90
 51
180
  0
LINE
  8
_0-a_
  6
CONTINUOUS
 62
    4
 10
754.09215952334625
 20
428.93335311244391
 11
757.09215952334625
 21
428.93335311244391
  0
LINE
  8
_0-a_
  6
CONTINUOUS
 62
    4
 10
757.09215952334625
 20
428.93335311244391
 11
757.09215952334625
 21
403.43335311244391
  0
LINE
  8
_0-a_
  6
CONTINUOUS
 62
    4
 10
757.09215952334625
 20
403.43335311244391
 11
754.09215952334625
 21
403.43335311244391
  0
ARC
  8
_0-a_
  6
CONTINUOUS
 62
    4
 10
754.09215952334625
 20
403.93335311244391
 40
0.5
 50
180
 51
270
  0
LINE
  8
_0-a_
  6
CONTINUOUS
 62
    4
 10
753.59215952334625
 20
403.93335311244391
 11
753.59215952334625
 21
410.73335311244398
  0
LINE
  8
_0-a_
  6
CONTINUOUS
 62
    4
 10
753.59215952334625
 20
410.73335311244398
 11
752.7921595233463
 21
410.73335311244398
  0
LINE
  8
_0-a_
  6
CONTINUOUS
 62
    4
 10
752.29215952334641
 20
410.23335311244398
 11
752.29215952334641
 21
403.43335311244391
  0
LINE
  8
_0-a_
  6
CONTINUOUS
 62
    4
 10
752.29215952334641
 20
403.43335311244391
 11
745.7921595233463
 21
403.43335311244391
  0
LINE
  8
_0-a_
  6
CONTINUOUS
 62
    4
 10
745.29215952334641
 20
402.93335311244397
 11
745.29215952334641
 21
402.18335311244397
  0
LINE
  8
_0-a_
  6
CONTINUOUS
 62
    4
 10
745.7921595233463
 20
401.68335311244391
 11
757.64215952334621
 21
401.68335311244391
  0
LINE
  8
_0-a_
  6
CONTINUOUS
 62
    4
 10
767.2921595233463
 20
401.68335311244391
 11
767.2921595233463
 21
402.58335311244389
  0
ARC
  8
_0-a_
  6
CONTINUOUS
 62
    4
 10
766.99215952334612
 20
402.58335311244389
 40
0.3000000000000114
 50
0.0000000000108648
 51
90.000000000010829
  0
LINE
  8
_0-a_
  6
CONTINUOUS
 62
    4
 10
766.99215952334612
 20
402.88335311244396
 11
763.99215952334612
 21
402.88335311244396
  0
LINE
  8
_0-a_
  6
CONTINUOUS
 62
    4
 10
763.99215952334612
 20
402.88335311244396
 11
763.99215952334612
 21
404.38335311244396
  0
LINE
  8
_0-a_
  6
CONTINUOUS
 62
    4
 10
763.99215952334612
 20
404.38335311244396
 11
766.29215952334641
 21
404.38335311244396
  0
LINE
  8
_0-a_
  6
CONTINUOUS
 62
    4
 10
766.29215952334641
 20
404.38335311244396
 11
766.29215952334641
 21
403.88335311244407
  0
LINE
  8
_0-a_
  6
CONTINUOUS
 62
    4
 10
766.29215952334641
 20
403.88335311244407
 11
766.7921595233463
 21
403.88335311244407
  0
ARC
  8
_0-a_
  6
CONTINUOUS
 62
    4
 10
766.7921595233463
 20
404.38335311244396
 40
0.5
 50
270
 51
0
  0
LINE
  8
_0-a_
  6
CONTINUOUS
 62
    4
 10
767.2921595233463
 20
404.38335311244396
 11
767.2921595233463
 21
405.58335311244389
  0
LINE
  8
_0-a_
  6
CONTINUOUS
 62
    4
 10
767.2921595233463
 20
405.58335311244389
 11
763.7921595233463
 21
405.58335311244389
  0
ARC
  8
_0-a_
  6
CONTINUOUS
 62
    4
 10
763.7921595233463
 20
404.58335311244383
 40
1
 50
90
 51
180
  0
LINE
  8
_0-a_
  6
CONTINUOUS
 62
    4
 10
762.79215952334641
 20
404.58335311244383
 11
762.79215952334641
 21
403.18335311244391
  0
LINE
  8
_0-a_
  6
CONTINUOUS
 62
    4
 10
762.79215952334641
 20
403.18335311244391
 11
759.29215952334607
 21
403.18335311244391
  0
LINE
  8
_0-a_
  6
CONTINUOUS
 62
    4
 10
758.79215952334607
 20
403.68335311244397
 11
758.79215952334607
 21
428.68335311244391
  0
LINE
  8
_0-a_
  6
CONTINUOUS
 62
    4
 10
759.29215952334607
 20
429.18335311244397
 11
762.79215952334641
 21
429.18335311244397
  0
LINE
  8
_0-a_
  6
CONTINUOUS
 62
    4
 10
762.79215952334641
 20
429.18335311244397
 11
762.79215952334641
 21
427.78335311244416
  0
ARC
  8
_0-a_
  6
CONTINUOUS
 62
    4
 10
763.7921595233463
 20
427.78335311244416
 40
1
 50
180
 51
270
  0
LINE
  8
_0-a_
  6
CONTINUOUS
 62
    4
 10
763.7921595233463
 20
426.7833531124441
 11
767.2921595233463
 21
426.7833531124441
  0
LINE
  8
_0-a_
  6
CONTINUOUS
 62
    4
 10
767.2921595233463
 20
426.7833531124441
 11
767.2921595233463
 21
427.98335311244398
  0
ARC
  8
_0-a_
  6
CONTINUOUS
 62
    4
 10
766.7921595233463
 20
427.98335311244398
 40
0.5
 50
0
 51
90
  0
LINE
  8
_0-a_
  6
CONTINUOUS
 62
    4
 10
766.7921595233463
 20
428.48335311244392
 11
766.29215952334641
 21
428.48335311244392
  0
LINE
  8
_0-a_
  6
CONTINUOUS
 62
    4
 10
766.29215952334641
 20
428.48335311244392
 11
766.29215952334641
 21
427.98335311244398
  0
ARC
  8
_0-a_
  6
CONTINUOUS
 62
    4
 10
759.29215952334607
 20
428.68335311244391
 40
0.5
 50
90
 51
180
  0
ARC
  8
_0-a_
  6
CONTINUOUS
 62
    4
 10
759.29215952334607
 20
403.68335311244397
 40
0.5
 50
180
 51
270
  0
ARC
  8
_0-a_
  6
CONTINUOUS
 62
    4
 10
752.7921595233463
 20
410.23335311244398
 40
0.5
 50
90
 51
180
  0
ARC
  8
_0-a_
  6
CONTINUOUS
 62
    4
 10
752.7921595233463
 20
422.1333531124439
 40
0.5
 50
180
 51
270
  0
LINE
  8
_0-a_
  6
CONTINUOUS
 62
    4
 10
757.64215952334621
 20
430.68335311244397
 11
757.94215952334616
 21
430.3833531124439
  0
LINE
  8
_0-a_
  6
CONTINUOUS
 62
    4
 10
757.94215952334616
 20
430.3833531124439
 11
758.24215952334612
 21
430.68335311244397
  0
LINE
  8
_0-a_
  6
CONTINUOUS
 62
    4
 10
757.64215952334621
 20
430.68335311244397
 11
745.7921595233463
 21
430.68335311244397
  0
LINE
  8
_0-a_
  6
CONTINUOUS
 62
    4
 10
757.94215952334616
 20
401.98335311244381
 11
758.24215952334612
 21
401.68335311244391
  0
LINE
  8
_0-a_
  6
CONTINUOUS
 62
    4
 10
757.64215952334621
 20
401.68335311244391
 11
757.94215952334616
 21
401.98335311244381
  0
LINE
  8
_0-a_
  6
CONTINUOUS
 62
    4
 10
758.24215952334612
 20
401.68335311244391
 11
767.2921595233463
 21
401.68335311244391
  0
ARC
  8
_0-a_
  6
CONTINUOUS
 62
    4
 10
745.7921595233463
 20
429.43335311244391
 40
0.5
 50
180
 51
270
  0
ARC
  8
_0-a_
  6
CONTINUOUS
 62
    4
 10
745.7921595233463
 20
430.18335311244391
 40
0.5
 50
90
 51
180
  0
ARC
  8
_0-a_
  6
CONTINUOUS
 62
    4
 10
745.7921595233463
 20
402.93335311244397
 40
0.5
 50
90
 51
180
  0
ARC
  8
_0-a_
  6
CONTINUOUS
 62
    4
 10
745.7921595233463
 20
402.18335311244397
 40
0.5
 50
180
 51
270
  0
LINE
  8
_0-a_
  6
CONTINUOUS
 62
    4
 10
762.79215952334607
 20
419.18335311244346
 11
761.79215952334607
 21
419.18335311244346
  0
LINE
  8
_0-a_
  6
CONTINUOUS
 62
    4
 10
762.79215952334596
 20
413.18335311244448
 11
761.79215952334607
 21
413.18335311244448
  0
LINE
  8
_0-a_
  6
CONTINUOUS
 62
    4
 10
762.79215952334584
 20
403.4333531124438
 11
762.79215952334596
 21
413.18335311244448
  0
LINE
  8
_0-a_
  6
CONTINUOUS
 62
    4
 10
758.79215952334607
 20
428.4333531124438
 11
758.79215952334607
 21
403.93335311244374
  0
LINE
  8
_0-a_
  6
CONTINUOUS
 62
    4
 10
762.79215952334607
 20
428.9333531124438
 11
759.29215952334607
 21
428.9333531124438
  0
LINE
  8
_0-a_
  6
CONTINUOUS
 62
    4
 10
762.79215952334584
 20
403.4333531124438
 11
759.29215952334607
 21
403.4333531124438
  0
ARC
  8
_0-a_
  6
CONTINUOUS
 62
    4
 10
759.29215952334607
 20
428.4333531124438
 40
0.5
 50
90
 51
180
  0
ARC
  8
_0-a_
  6
CONTINUOUS
 62
    4
 10
759.29215952334607
 20
403.93335311244374
 40
0.5
 50
180
 51
270
  0
LINE
  8
_0-a_
  6
CONTINUOUS
 62
    4
 10
767.09215952334614
 20
426.53335311244365
 11
763.79215952334619
 21
426.53335311244365
  0
LINE
  8
_0-a_
  6
CONTINUOUS
 62
    4
 10
763.79215952334619
 20
405.83335311244355
 11
767.09215952334614
 21
405.83335311244355
  0
ARC
  8
_0-a_
  6
CONTINUOUS
 62
    4
 10
763.79215952334619
 20
427.53335311244371
 40
1
 50
179.99999999999929
 51
270
  0
ARC
  8
_0-a_
  6
CONTINUOUS
 62
    4
 10
763.79215952334619
 20
404.8333531124436
 40
1
 50
90
 51
179.99999999999929
  0
LINE
  8
_0-a_
  6
CONTINUOUS
 62
    4
 10
761.79215952334607
 20
419.18335311244346
 11
761.79215952334607
 21
413.18335311244448
  0
LINE
  8
_0-a_
  6
CONTINUOUS
 62
    4
 10
762.79215952334607
 20
419.18335311244346
 11
762.79215952334607
 21
428.9333531124438
  0
LINE
  8
_0-a_
  6
CONTINUOUS
 62
    4
 10
760.29215952334607
 20
414.1833531124438
 11
758.79215952334607
 21
414.1833531124438
  0
LINE
  8
_0-a_
  6
CONTINUOUS
 62
    4
 10
760.29215952334607
 20
418.18335311244374
 11
758.79215952334607
 21
418.18335311244374
  0
LINE
  8
_0-a_
  6
CONTINUOUS
 62
    4
 10
760.29215952334607
 20
418.18335311244374
 11
760.29215952334607
 21
414.1833531124438
  0
LINE
  8
_0-a_
  6
CONTINUOUS
 62
    4
 10
767.09215952334603
 20
426.53335311244365
 11
767.09215952334603
 21
422.43335311244397
  0
LINE
  8
_0-a_
  6
CONTINUOUS
 62
    4
 10
765.29215952334607
 20
422.43335311244397
 11
767.09215952334603
 21
422.43335311244397
  0
LINE
  8
_0-a_
  6
CONTINUOUS
 62
    4
 10
765.29215952334607
 20
409.93335311244391
 11
767.09215952334603
 21
409.93335311244391
  0
LINE
  8
_0-a_
  6
CONTINUOUS
 62
    4
 10
764.79215952334607
 20
421.93335311244391
 11
764.79215952334607
 21
410.43335311244397
  0
LINE
  8
_0-a_
  6
CONTINUOUS
 62
    4
 10
767.09215952334603
 20
409.93335311244391
 11
767.09215952334603
 21
405.83335311244355
  0
ARC
  8
_0-a_
  6
CONTINUOUS
 62
    4
 10
765.29215952334607
 20
421.93335311244391
 40
0.5
 50
90.000000000000355
 51
180.00000000000011
  0
ARC
  8
_0-a_
  6
CONTINUOUS
 62
    4
 10
765.29215952334607
 20
410.43335311244397
 40
0.5
 50
180.00000000000014
 51
270
  0
LINE
  8
_0-a_
  6
CONTINUOUS
 62
    4
 10
746.02477854725248
 20
426.03143064256608
 11
749.49774210059093
 21
406.33527558232186
  0
LINE
  8
_0-a_
  6
CONTINUOUS
 62
    4
 10
746.02477854725248
 20
426.03143064256608
 11
742.55181499391415
 21
406.33527558232186
  0
LINE
  8
_0-a_
  6
CONTINUOUS
 62
    4
 10
739.0788514405757
 20
426.03143064256608
 11
742.55181499391415
 21
406.33527558232186
  0
LINE
  8
_0-a_
  6
CONTINUOUS
 62
    4
 10
739.0788514405757
 20
426.03143064256608
 11
735.60588788723715
 21
406.33527558232186
  0
LINE
  8
_0-a_
  6
CONTINUOUS
 62
    4
 10
732.1329243338987
 20
426.03143064256608
 11
735.60588788723715
 21
406.33527558232186
  0
LINE
  8
_0-a_
  6
CONTINUOUS
 62
    4
 10
732.1329243338987
 20
426.03143064256608
 11
728.65996078056025
 21
406.33527558232186
  0
LINE
  8
_0-a_
  6
CONTINUOUS
 62
    4
 10
725.18699722722181
 20
426.03143064256608
 11
728.65996078056025
 21
406.33527558232186
  0
LINE
  8
_0-a_
  6
CONTINUOUS
 62
    4
 10
725.18699722722181
 20
426.03143064256608
 11
721.71403367388336
 21
406.33527558232186
  0
LINE
  8
_0-a_
  6
CONTINUOUS
 62
    4
 10
718.24107012054492
 20
426.03143064256608
 11
721.71403367388336
 21
406.33527558232186
  0
LINE
  8
_0-a_
  6
CONTINUOUS
 62
    4
 10
718.24107012054492
 20
426.03143064256608
 11
714.76810656720647
 21
406.33527558232186
  0
LINE
  8
_0-a_
  6
CONTINUOUS
 62
    4
 10
711.40847475314342
 20
424.72676284302293
 11
714.76810656720647
 21
406.33527558232186
  0
LINE
  8
_0-a_
  6
CONTINUOUS
 62
    4
 10
698.70847475314326
 20
421.18335311244391
 11
698.70847475314326
 21
411.18335311244397
  0
LINE
  8
_0-a_
  6
CONTINUOUS
 62
    4
 10
701.75389627290883
 20
420.93335311244402
 11
699.75389627290872
 21
420.93335311244402
  0
LINE
  8
_0-a_
  6
CONTINUOUS
 62
    4
 10
699.75389627290872
 20
411.43335311244408
 11
701.75389627290883
 21
411.43335311244408
  0
LINE
  8
_0-a_
  6
CONTINUOUS
 62
    4
 10
711.40847475314342
 20
406.72676284302293
 11
710.40847475314342
 21
406.72676284302293
  0
LINE
  8
_0-a_
  6
CONTINUOUS
 62
    4
 10
710.40847475314342
 20
406.72676284302293
 11
710.40847475314342
 21
424.72676284302293
  0
LINE
  8
_0-a_
  6
CONTINUOUS
 62
    4
 10
710.40847475314342
 20
424.72676284302293
 11
711.40847475314342
 21
424.72676284302293
  0
LINE
  8
_0-a_
  6
CONTINUOUS
 62
    4
 10
711.40847475314342
 20
424.72676284302293
 11
711.40847475314342
 21
406.72676284302293
  0
LINE
  8
_0-a_
  6
CONTINUOUS
 62
    4
 10
712.4084747531432
 20
425.03335311244382
 11
712.4084747531432
 21
407.33335311244406
  0
LINE
  8
_0-a_
  6
CONTINUOUS
 62
    4
 10
745.7921595233463
 20
403.43335311244391
 11
706.60847475314358
 21
403.43335311244402
  0
LINE
  8
_0-a_
  6
CONTINUOUS
 62
    4
 10
692.60847475314313
 20
403.43335311244402
 11
676.29215451826667
 21
403.43335311244402
  0
LINE
  8
_0-a_
  6
CONTINUOUS
 62
    4
 10
745.7921595233463
 20
428.93335311244402
 11
706.60847475314358
 21
428.9333531124438
  0
LINE
  8
_0-a_
  6
CONTINUOUS
 62
    4
 10
692.60847475314313
 20
428.93335311244402
 11
676.29215451826667
 21
428.93335311244402
  0
LINE
  8
_0-a_
  6
CONTINUOUS
 62
    4
 10
694.60847475314335
 20
404.18335311244419
 11
704.6084747531437
 21
404.18335311244419
  0
LINE
  8
_0-a_
  6
CONTINUOUS
 62
    4
 10
694.60847475314335
 20
428.93335311244402
 11
704.6084747531437
 21
428.93335311244402
  0
LINE
  8
_0-a_
  6
CONTINUOUS
 62
    4
 10
704.6084747531437
 20
403.43335311244402
 11
694.60847475314335
 21
403.43335311244402
  0
LINE
  8
_0-a_
  6
CONTINUOUS
 62
    4
 10
704.6084747531437
 20
428.1833531124438
 11
694.60847475314335
 21
428.1833531124438
  0
LINE
  8
_0-a_
  6
CONTINUOUS
 62
    4
 10
713.40847475314331
 20
425.93335311244391
 11
713.40847475314331
 21
426.9333531124438
  0
LINE
  8
_0-a_
  6
CONTINUOUS
 62
    4
 10
713.40847475314331
 20
405.43335311244414
 11
713.40847475314331
 21
406.43335311244391
  0
ARC
  8
_0-a_
  6
CONTINUOUS
 62
    4
 10
686.90847475314354
 20
411.59325506380321
 40
0.5
 50
281.30993247402012
 51
0.000000000000318
  0
ARC
  8
_0-a_
  6
CONTINUOUS
 62
    4
 10
686.90847475314342
 20
420.77345116108461
 40
0.5
 50
0.0000000000003197
 51
78.690067525979785
  0
LINE
  8
_0-a_
  6
CONTINUOUS
 62
    4
 10
687.00653282071255
 20
411.1029647259578
 11
683.2123586180054
 21
410.34412988541635
  0
LINE
  8
_0-a_
  6
CONTINUOUS
 62
    4
 10
687.40847475314331
 20
420.77345116108461
 11
687.40847475314342
 21
411.59325506380321
  0
LINE
  8
_0-a_
  6
CONTINUOUS
 62
    4
 10
683.2123586180054
 20
422.02257633947153
 11
687.00653282071244
 21
421.26374149893013
  0
LINE
  8
_0-a_
  6
CONTINUOUS
 62
    4
 10
684.90847475314354
 20
405.98335311244421
 11
693.10847475314313
 21
405.98335311244421
  0
ARC
  8
_0-a_
  6
CONTINUOUS
 62
    4
 10
683.40847475314354
 20
409.36354920972548
 40
1
 50
101.30993247402031
 51
180
  0
ARC
  8
_0-a_
  6
CONTINUOUS
 62
    4
 10
683.40847475314354
 20
423.00315701516257
 40
1
 50
180
 51
258.6900675259796
  0
ARC
  8
_0-a_
  6
CONTINUOUS
 62
    4
 10
692.10847475314313
 20
403.68335311244414
 40
0.5
 50
0
 51
89.999999999999758
  0
LINE
  8
_0-a_
  6
CONTINUOUS
 62
    4
 10
692.10847475314313
 20
404.18335311244419
 11
684.90847475314354
 21
404.18335311244419
  0
LINE
  8
_0-a_
  6
CONTINUOUS
 62
    4
 10
682.40847475314354
 20
406.68335311244402
 11
682.40847475314354
 21
409.36354920972548
  0
ARC
  8
_0-a_
  6
CONTINUOUS
 62
    4
 10
684.90847475314354
 20
406.68335311244414
 40
2.5
 50
180
 51
270
  0
ARC
  8
_0-a_
  6
CONTINUOUS
 62
    4
 10
684.90847475314354
 20
406.98335311244421
 40
1
 50
180
 51
270
  0
LINE
  8
_0-a_
  6
CONTINUOUS
 62
    4
 10
683.90847475314354
 20
408.54374530700682
 11
683.90847475314354
 21
406.98335311244421
  0
LINE
  8
_0-a_
  6
CONTINUOUS
 62
    4
 10
688.90847475314342
 20
409.95364725836612
 11
684.31041668557441
 21
409.03403564485234
  0
ARC
  8
_0-a_
  6
CONTINUOUS
 62
    4
 10
684.40847475314342
 20
408.54374530700682
 40
0.5
 50
101.3099324740202
 51
180.00000000000321
  0
ARC
  8
_0-a_
  6
CONTINUOUS
 62
    4
 10
684.40847475314342
 20
423.82296091788101
 40
0.5
 50
179.9999999999967
 51
258.69006752597983
  0
LINE
  8
_0-a_
  6
CONTINUOUS
 62
    4
 10
688.90847475314342
 20
422.41305896652182
 11
684.31041668557441
 21
423.3326705800356
  0
ARC
  8
_0-a_
  6
CONTINUOUS
 62
    4
 10
703.60847475314358
 20
404.68335311244414
 40
1
 50
0
 51
89.999999999999119
  0
ARC
  8
_0-a_
  6
CONTINUOUS
 62
    4
 10
695.60847475314324
 20
404.68335311244425
 40
1
 50
89.99999999999882
 51
179.99999999999929
  0
ARC
  8
_0-a_
  6
CONTINUOUS
 62
    4
 10
707.10847475314381
 20
403.43335311244419
 40
0.5
 50
90.000000000000256
 51
180
  0
ARC
  8
_0-a_
  6
CONTINUOUS
 62
    4
 10
705.60847475314324
 20
406.68335311244414
 40
0.5
 50
0.0000000000002398
 51
89.999999999999758
  0
LINE
  8
_0-a_
  6
CONTINUOUS
 62
    4
 10
706.10847475314324
 20
406.68335311244414
 11
706.10847475314324
 21
405.43335311244391
  0
ARC
  8
_0-a_
  6
CONTINUOUS
 62
    4
 10
693.60847475314313
 20
406.68335311244431
 40
0.5
 50
89.999999999999758
 51
180.0000000000002
  0
LINE
  8
_0-a_
  6
CONTINUOUS
 62
    4
 10
692.60847475314313
 20
403.68335311244414
 11
692.60847475314313
 21
402.68335311244425
  0
LINE
  8
_0-a_
  6
CONTINUOUS
 62
    4
 10
704.6084747531437
 20
401.68335311244425
 11
705.6084747531437
 21
401.68335311244425
  0
LINE
  8
_0-a_
  6
CONTINUOUS
 62
    4
 10
693.60847475314313
 20
401.68335311244425
 11
694.60847475314313
 21
401.68335311244425
  0
LINE
  8
_0-a_
  6
CONTINUOUS
 62
    4
 10
693.10847475314313
 20
406.68335311244414
 11
693.10847475314313
 21
405.98335311244421
  0
LINE
  8
_0-a_
  6
CONTINUOUS
 62
    4
 10
694.60847475314313
 20
401.68335311244425
 11
694.60847475314335
 21
404.68335311244425
  0
LINE
  8
_0-a_
  6
CONTINUOUS
 62
    4
 10
704.6084747531437
 20
401.68335311244425
 11
704.6084747531437
 21
404.68335311244414
  0
LINE
  8
_0-a_
  6
CONTINUOUS
 62
    4
 10
706.60847475314358
 20
403.43335311244419
 11
706.60847475314358
 21
402.68335311244425
  0
LINE
  8
_0-a_
  6
CONTINUOUS
 62
    4
 10
721.65847475314342
 20
403.93335311244425
 11
707.10847475314381
 21
403.93335311244414
  0
ARC
  8
_0-a_
  6
CONTINUOUS
 62
    4
 10
721.65847475314342
 20
404.68335311244414
 40
0.7499999999999148
 50
270
 51
90
  0
LINE
  8
_0-a_
  6
CONTINUOUS
 62
    4
 10
714.40847475314331
 20
405.43335311244408
 11
721.65847475314342
 21
405.43335311244408
  0
LINE
  8
_0-a_
  6
CONTINUOUS
 62
    4
 10
714.40847475314331
 20
405.93335311244397
 11
714.40847475314331
 21
405.43335311244408
  0
ARC
  8
_0-a_
  6
CONTINUOUS
 62
    4
 10
713.90847475314331
 20
405.93335311244397
 40
0.5
 50
0
 51
90
  0
LINE
  8
_0-a_
  6
CONTINUOUS
 62
    4
 10
713.40847475314331
 20
406.43335311244391
 11
713.90847475314331
 21
406.43335311244391
  0
LINE
  8
_0-a_
  6
CONTINUOUS
 62
    4
 10
706.10847475314324
 20
405.43335311244408
 11
713.40847475314331
 21
405.43335311244414
  0
LINE
  8
_0-a_
  6
CONTINUOUS
 62
    4
 10
693.60847475314313
 20
407.18335311244425
 11
705.60847475314324
 21
407.18335311244419
  0
LINE
  8
_0-a_
  6
CONTINUOUS
 62
    4
 10
695.60847475314324
 20
405.68335311244425
 11
703.60847475314358
 21
405.68335311244419
  0
LINE
  8
_0-a_
  6
CONTINUOUS
 62
    4
 10
684.90847475314354
 20
426.38335311244384
 11
693.10847475314313
 21
426.38335311244384
  0
LINE
  8
_0-a_
  6
CONTINUOUS
 62
    4
 10
688.90847475314331
 20
409.95364725836606
 11
688.90847475314342
 21
422.41305896652182
  0
LINE
  8
_0-a_
  6
CONTINUOUS
 62
    4
 10
695.60847475314324
 20
426.68335311244368
 11
703.60847475314358
 21
426.6833531124438
  0
LINE
  8
_0-a_
  6
CONTINUOUS
 62
    4
 10
693.60847475314313
 20
425.18335311244368
 11
705.60847475314324
 21
425.1833531124438
  0
LINE
  8
_0-a_
  6
CONTINUOUS
 62
    4
 10
683.90847475314354
 20
423.82296091788112
 11
683.90847475314354
 21
425.38335311244384
  0
ARC
  8
_0-a_
  6
CONTINUOUS
 62
    4
 10
684.90847475314354
 20
425.38335311244384
 40
1
 50
90
 51
180
  0
LINE
  8
_0-a_
  6
CONTINUOUS
 62
    4
 10
706.10847475314324
 20
426.93335311244397
 11
713.40847475314331
 21
426.9333531124438
  0
LINE
  8
_0-a_
  6
CONTINUOUS
 62
    4
 10
713.40847475314331
 20
425.93335311244391
 11
713.90847475314331
 21
425.93335311244391
  0
ARC
  8
_0-a_
  6
CONTINUOUS
 62
    4
 10
713.90847475314331
 20
426.43335311244391
 40
0.5
 50
270
 51
0
  0
LINE
  8
_0-a_
  6
CONTINUOUS
 62
    4
 10
714.40847475314331
 20
426.43335311244391
 11
714.40847475314331
 21
426.93335311244397
  0
LINE
  8
_0-a_
  6
CONTINUOUS
 62
    4
 10
714.40847475314331
 20
426.93335311244397
 11
721.65847475314342
 21
426.93335311244397
  0
ARC
  8
_0-a_
  6
CONTINUOUS
 62
    4
 10
721.65847475314342
 20
427.6833531124438
 40
0.7499999999999148
 50
270
 51
90
  0
LINE
  8
_0-a_
  6
CONTINUOUS
 62
    4
 10
721.65847475314342
 20
428.43335311244363
 11
707.10847475314381
 21
428.4333531124438
  0
LINE
  8
_0-a_
  6
CONTINUOUS
 62
    4
 10
706.60847475314358
 20
428.9333531124438
 11
706.60847475314358
 21
429.68335311244368
  0
LINE
  8
_0-a_
  6
CONTINUOUS
 62
    4
 10
704.6084747531437
 20
430.68335311244363
 11
704.6084747531437
 21
427.6833531124438
  0
ARC
  8
_0-a_
  6
CONTINUOUS
 62
    4
 10
684.90847475314354
 20
425.68335311244374
 40
2.5
 50
90
 51
180
  0
LINE
  8
_0-a_
  6
CONTINUOUS
 62
    4
 10
682.40847475314354
 20
425.68335311244374
 11
682.40847475314354
 21
423.00315701516257
  0
LINE
  8
_0-a_
  6
CONTINUOUS
 62
    4
 10
694.60847475314313
 20
430.68335311244363
 11
694.60847475314335
 21
427.68335311244363
  0
LINE
  8
_0-a_
  6
CONTINUOUS
 62
    4
 10
693.10847475314313
 20
425.68335311244374
 11
693.10847475314335
 21
426.38335311244384
  0
LINE
  8
_0-a_
  6
CONTINUOUS
 62
    4
 10
692.10847475314313
 20
428.1833531124438
 11
684.90847475314354
 21
428.1833531124438
  0
LINE
  8
_0-a_
  6
CONTINUOUS
 62
    4
 10
693.60847475314313
 20
430.68335311244363
 11
694.60847475314313
 21
430.68335311244363
  0
LINE
  8
_0-a_
  6
CONTINUOUS
 62
    4
 10
704.6084747531437
 20
430.68335311244363
 11
705.6084747531437
 21
430.68335311244363
  0
LINE
  8
_0-a_
  6
CONTINUOUS
 62
    4
 10
692.60847475314313
 20
428.68335311244374
 11
692.60847475314313
 21
429.68335311244368
  0
ARC
  8
_0-a_
  6
CONTINUOUS
 62
    4
 10
692.10847475314313
 20
428.68335311244374
 40
0.5
 50
270.00000000000023
 51
0.0000000000000254
  0
ARC
  8
_0-a_
  6
CONTINUOUS
 62
    4
 10
693.60847475314313
 20
425.68335311244368
 40
0.5
 50
179.99999999999966
 51
270.00000000000023
  0
ARC
  8
_0-a_
  6
CONTINUOUS
 62
    4
 10
705.60847475314324
 20
425.68335311244374
 40
0.5
 50
270.00000000000023
 51
359.99999999999977
  0
ARC
  8
_0-a_
  6
CONTINUOUS
 62
    4
 10
707.10847475314381
 20
428.9333531124438
 40
0.5
 50
180
 51
269.99999999999977
  0
ARC
  8
_0-a_
  6
CONTINUOUS
 62
    4
 10
695.60847475314324
 20
427.68335311244363
 40
1
 50
180.00000000000071
 51
270.00000000000119
  0
ARC
  8
_0-a_
  6
CONTINUOUS
 62
    4
 10
703.60847475314358
 20
427.6833531124438
 40
1
 50
270.00000000000091
 51
0.0000000000000127
  0
LINE
  8
_0-a_
  6
CONTINUOUS
 62
    4
 10
706.10847475314324
 20
426.93335311244397
 11
706.10847475314324
 21
425.68335311244374
  0
LINE
  8
_0-a_
  6
CONTINUOUS
 62
    4
 10
686.20847475314361
 20
424.78335311244371
 11
686.20847475314338
 21
424.18335311244368
  0
ARC
  8
_0-a_
  6
CONTINUOUS
 62
    4
 10
686.40847475314331
 20
424.38335311244373
 40
2
 50
90.000000000002444
 51
180.00000000000321
  0
LINE
  8
_0-a_
  6
CONTINUOUS
 62
    4
 10
685.90847475314331
 20
423.88335311244373
 11
684.70847475314326
 21
423.88335311244367
  0
ARC
  8
_0-a_
  6
CONTINUOUS
 62
    4
 10
685.90847475314331
 20
424.18335311244374
 40
0.2999999999999999
 50
270.0000000000025
 51
359.9999999999838
  0
LINE
  8
_0-a_
  6
CONTINUOUS
 62
    4
 10
684.40847475314331
 20
424.38335311244361
 11
684.40847475314331
 21
424.18335311244374
  0
ARC
  8
_0-a_
  6
CONTINUOUS
 62
    4
 10
684.70847475314326
 20
424.18335311244374
 40
0.2999999999999999
 50
180
 51
270.00000000000267
  0
ARC
  8
_0-a_
  6
CONTINUOUS
 62
    4
 10
684.70847475314326
 20
408.18335311244431
 40
0.2999999999999999
 50
89.999999999997272
 51
180
  0
LINE
  8
_0-a_
  6
CONTINUOUS
 62
    4
 10
684.40847475314331
 20
407.98335311244421
 11
684.40847475314331
 21
408.18335311244431
  0
ARC
  8
_0-a_
  6
CONTINUOUS
 62
    4
 10
685.90847475314331
 20
408.18335311244414
 40
0.2999999999999999
 50
0.0000000000161471
 51
89.999999999997513
  0
LINE
  8
_0-a_
  6
CONTINUOUS
 62
    4
 10
685.90847475314331
 20
408.48335311244421
 11
684.70847475314326
 21
408.48335311244421
  0
ARC
  8
_0-a_
  6
CONTINUOUS
 62
    4
 10
686.40847475314331
 20
407.98335311244415
 40
2
 50
179.9999999999967
 51
269.99999999999761
  0
LINE
  8
_0-a_
  6
CONTINUOUS
 62
    4
 10
686.20847475314361
 20
407.58335311244417
 11
686.20847475314338
 21
408.18335311244431
  0
LINE
  8
_0-a_
  6
CONTINUOUS
 62
    4
 10
691.10847475314347
 20
423.1833531124438
 11
691.10847475314313
 21
424.78335311244393
  0
LINE
  8
_0-a_
  6
CONTINUOUS
 62
    4
 10
693.10847475314335
 20
423.78335311244393
 11
693.10847475314301
 21
426.38335311244407
  0
LINE
  8
_0-a_
  6
CONTINUOUS
 62
    4
 10
693.10847475314301
 20
426.38335311244407
 11
686.40847475314331
 21
426.38335311244379
  0
ARC
  8
_0-a_
  6
CONTINUOUS
 62
    4
 10
692.10847475314335
 20
423.18335311244402
 40
1
 50
180.00000000000293
 51
269.99999999999852
  0
LINE
  8
_0-a_
  6
CONTINUOUS
 62
    4
 10
686.20847475314349
 20
424.78335311244371
 11
691.10847475314313
 21
424.78335311244393
  0
LINE
  8
_0-a_
  6
CONTINUOUS
 62
    4
 10
686.20847475314349
 20
407.58335311244417
 11
691.10847475314313
 21
407.583353112444
  0
LINE
  8
_0-a_
  6
CONTINUOUS
 62
    4
 10
706.10847475314324
 20
408.58335311244394
 11
699.50847475314322
 21
408.58335311244394
  0
ARC
  8
_0-a_
  6
CONTINUOUS
 62
    4
 10
699.20847475314304
 20
412.68335311244402
 40
0.5
 50
0.0000000000058353
 51
90
  0
ARC
  8
_0-a_
  6
CONTINUOUS
 62
    4
 10
699.20847475314304
 20
412.68335311244402
 40
0.5
 50
90
 51
180.0000000000058
  0
ARC
  8
_0-a_
  6
CONTINUOUS
 62
    4
 10
692.10847475314335
 20
409.1833531124438
 40
1
 50
90.000000000001464
 51
179.99999999999699
  0
LINE
  8
_0-a_
  6
CONTINUOUS
 62
    4
 10
699.70847475314326
 20
410.18335311244385
 11
706.20847475314326
 21
410.18335311244385
  0
LINE
  8
_0-a_
  6
CONTINUOUS
 62
    4
 10
699.70847475314304
 20
412.68335311244431
 11
699.70847475314338
 21
410.18335311244385
  0
LINE
  8
_0-a_
  6
CONTINUOUS
 62
    4
 10
698.70847475314326
 20
410.18335311244402
 11
698.70847475314304
 21
412.68335311244402
  0
LINE
  8
_0-a_
  6
CONTINUOUS
 62
    4
 10
692.10847475314335
 20
410.18335311244385
 11
698.70847475314326
 21
410.18335311244402
  0
LINE
  8
_0-a_
  6
CONTINUOUS
 62
    4
 10
693.10847475314301
 20
405.98335311244387
 11
686.4084747531432
 21
405.98335311244421
  0
LINE
  8
_0-a_
  6
CONTINUOUS
 62
    4
 10
693.10847475314335
 20
408.58335311244394
 11
693.10847475314301
 21
405.98335311244387
  0
LINE
  8
_0-a_
  6
CONTINUOUS
 62
    4
 10
706.10847475314324
 20
405.93335311244402
 11
706.10847475314313
 21
408.58335311244394
  0
LINE
  8
_0-a_
  6
CONTINUOUS
 62
    4
 10
691.10847475314347
 20
409.18335311244408
 11
691.10847475314313
 21
407.583353112444
  0
LINE
  8
_0-a_
  6
CONTINUOUS
 62
    4
 10
706.70847475314326
 20
410.6833531124438
 11
706.70847475314326
 21
421.68335311244402
  0
ARC
  8
_0-a_
  6
CONTINUOUS
 62
    4
 10
712.95847475314326
 20
405.88335311244384
 40
0.4499999999999999
 50
0
 51
89.999999999998238
  0
ARC
  8
_0-a_
  6
CONTINUOUS
 62
    4
 10
712.95847475314326
 20
405.88335311244384
 40
0.4499999999999999
 50
269.99999999999829
 51
0
  0
ARC
  8
_0-a_
  6
CONTINUOUS
 62
    4
 10
712.95847475314326
 20
426.48335311244404
 40
0.4499999999999999
 50
0
 51
90.000000000001677
  0
ARC
  8
_0-a_
  6
CONTINUOUS
 62
    4
 10
712.95847475314326
 20
426.48335311244404
 40
0.4499999999999999
 50
270.00000000000171
 51
0.0000000000000254
  0
LINE
  8
_0-a_
  6
CONTINUOUS
 62
    4
 10
712.95847475314326
 20
406.33335311244377
 11
712.4084747531432
 21
406.33335311244389
  0
LINE
  8
_0-a_
  6
CONTINUOUS
 62
    4
 10
712.95847475314326
 20
426.0333531124441
 11
712.4084747531432
 21
426.0333531124441
  0
LINE
  8
_0-a_
  6
CONTINUOUS
 62
    4
 10
712.95847475314326
 20
405.4333531124438
 11
706.60847475314335
 21
405.43335311244408
  0
LINE
  8
_0-a_
  6
CONTINUOUS
 62
    4
 10
712.4084747531432
 20
407.33335311244406
 11
712.4084747531432
 21
406.33335311244389
  0
ARC
  8
_0-a_
  6
CONTINUOUS
 62
    4
 10
711.90847475314331
 20
407.33335311244406
 40
0.4999999999999431
 50
0.0000000000064748
 51
90.000000000006494
  0
LINE
  8
_0-a_
  6
CONTINUOUS
 62
    4
 10
711.40847475314342
 20
407.83335311244389
 11
711.90847475314331
 21
407.83335311244389
  0
LINE
  8
_0-a_
  6
CONTINUOUS
 62
    4
 10
711.40847475314331
 20
406.33335311244394
 11
711.40847475314342
 21
407.83335311244389
  0
LINE
  8
_0-a_
  6
CONTINUOUS
 62
    4
 10
707.9084747531432
 20
406.33335311244394
 11
711.40847475314331
 21
406.33335311244394
  0
ARC
  8
_0-a_
  6
CONTINUOUS
 62
    4
 10
706.20847475314326
 20
410.6833531124438
 40
0.5
 50
270
 51
0
  0
ARC
  8
_0-a_
  6
CONTINUOUS
 62
    4
 10
706.60847475314335
 20
405.93335311244402
 40
0.5
 50
180
 51
270
  0
ARC
  8
_0-a_
  6
CONTINUOUS
 62
    4
 10
706.60847475314335
 20
426.4333531124438
 40
0.5
 50
90
 51
180
  0
LINE
  8
_0-a_
  6
CONTINUOUS
 62
    4
 10
706.10847475314324
 20
426.4333531124438
 11
706.10847475314313
 21
423.7833531124441
  0
LINE
  8
_0-a_
  6
CONTINUOUS
 62
    4
 10
692.10847475314335
 20
422.18335311244402
 11
698.70847475314326
 21
422.18335311244385
  0
LINE
  8
_0-a_
  6
CONTINUOUS
 62
    4
 10
698.70847475314326
 20
422.18335311244385
 11
698.70847475314304
 21
419.6833531124438
  0
LINE
  8
_0-a_
  6
CONTINUOUS
 62
    4
 10
699.70847475314304
 20
419.68335311244374
 11
699.70847475314338
 21
422.18335311244402
  0
LINE
  8
_0-a_
  6
CONTINUOUS
 62
    4
 10
699.70847475314326
 20
422.18335311244402
 11
706.20847475314326
 21
422.18335311244402
  0
ARC
  8
_0-a_
  6
CONTINUOUS
 62
    4
 10
706.20847475314326
 20
421.68335311244402
 40
0.5
 50
0
 51
90
  0
LINE
  8
_0-a_
  6
CONTINUOUS
 62
    4
 10
707.9084747531432
 20
406.33335311244394
 11
707.9084747531432
 21
426.03335311244393
  0
LINE
  8
_0-a_
  6
CONTINUOUS
 62
    4
 10
707.9084747531432
 20
426.03335311244393
 11
711.40847475314331
 21
426.03335311244393
  0
LINE
  8
_0-a_
  6
CONTINUOUS
 62
    4
 10
711.40847475314331
 20
426.03335311244393
 11
711.40847475314342
 21
424.53335311244393
  0
LINE
  8
_0-a_
  6
CONTINUOUS
 62
    4
 10
711.40847475314342
 20
424.53335311244393
 11
711.90847475314331
 21
424.53335311244393
  0
ARC
  8
_0-a_
  6
CONTINUOUS
 62
    4
 10
711.90847475314331
 20
425.03335311244382
 40
0.4999999999999431
 50
269.99999999999352
 51
359.99999999999352
  0
LINE
  8
_0-a_
  6
CONTINUOUS
 62
    4
 10
712.4084747531432
 20
425.03335311244382
 11
712.4084747531432
 21
426.0333531124441
  0
LINE
  8
_0-a_
  6
CONTINUOUS
 62
    4
 10
712.95847475314326
 20
426.93335311244402
 11
706.60847475314335
 21
426.9333531124438
  0
ARC
  8
_0-a_
  6
CONTINUOUS
 62
    4
 10
699.20847475314304
 20
419.6833531124438
 40
0.5
 50
179.9999999999942
 51
270
  0
ARC
  8
_0-a_
  6
CONTINUOUS
 62
    4
 10
699.20847475314304
 20
419.6833531124438
 40
0.5
 50
270
 51
359.9999999999942
  0
LINE
  8
_0-a_
  6
CONTINUOUS
 62
    4
 10
706.10847475314324
 20
423.7833531124441
 11
699.50847475314322
 21
423.7833531124441
  0
LINE
  8
_0-a_
  6
CONTINUOUS
 62
    4
 10
698.9084747531432
 20
423.7833531124441
 11
699.20847475314326
 21
423.48335311244404
  0
LINE
  8
_0-a_
  6
CONTINUOUS
 62
    4
 10
699.20847475314326
 20
423.48335311244404
 11
699.50847475314322
 21
423.7833531124441
  0
LINE
  8
_0-a_
  6
CONTINUOUS
 62
    4
 10
698.90847475314308
 20
408.58335311244394
 11
699.20847475314315
 21
408.88335311244396
  0
LINE
  8
_0-a_
  6
CONTINUOUS
 62
    4
 10
699.20847475314315
 20
408.88335311244396
 11
699.50847475314322
 21
408.58335311244394
  0
LINE
  8
_0-a_
  6
CONTINUOUS
 62
    4
 10
698.90847475314308
 20
408.58335311244394
 11
693.10847475314335
 21
408.58335311244394
  0
LINE
  8
_0-a_
  6
CONTINUOUS
 62
    4
 10
698.9084747531432
 20
423.7833531124441
 11
693.10847475314335
 21
423.7833531124441
  0
ARC
  8
_0-a_
  6
CONTINUOUS
 62
    4
 10
705.6084747531437
 20
429.68335311244368
 40
1
 50
0
 51
90
  0
ARC
  8
_0-a_
  6
CONTINUOUS
 62
    4
 10
693.60847475314313
 20
429.68335311244368
 40
1
 50
90
 51
180
  0
ARC
  8
_0-a_
  6
CONTINUOUS
 62
    4
 10
693.60847475314313
 20
402.68335311244425
 40
1
 50
180
 51
270
  0
ARC
  8
_0-a_
  6
CONTINUOUS
 62
    4
 10
705.6084747531437
 20
402.68335311244425
 40
1
 50
270
 51
0
  0
ARC
  8
_0-a_
  6
CONTINUOUS
 62
    4
 10
732.13291485963794
 20
416.18335311244391
 40
3.54
 50
150.37308364844816
 51
209.62691635154806
  0
ARC
  8
_0-a_
  6
CONTINUOUS
 62
    4
 10
732.13291485963794
 20
416.18335311244391
 40
3.54
 50
330.37308364845188
 51
29.626916351552126
  0
LINE
  8
_0-a_
  6
CONTINUOUS
 62
    4
 10
614.49214859475433
 20
414.43335311244408
 11
614.49214859475433
 21
413.93335311244391
  0
LINE
  8
_0-a_
  6
CONTINUOUS
 62
    4
 10
610.49214859475433
 20
414.43335311244408
 11
610.49214859475433
 21
413.93335311244391
  0
LINE
  8
_0-a_
  6
CONTINUOUS
 62
    4
 10
610.49214859475433
 20
414.43335311244408
 11
552.49214859475433
 21
414.43335311244414
  0
LINE
  8
_0-a_
  6
CONTINUOUS
 62
    4
 10
610.49214859475433
 20
417.93335311244402
 11
552.49214859475433
 21
417.93335311244402
  0
ARC
  8
_0-a_
  6
CONTINUOUS
 62
    4
 10
612.49214859475433
 20
413.93335311244391
 40
2.0000000000000346
 50
180
 51
0
  0
ARC
  8
_0-a_
  6
CONTINUOUS
 62
    4
 10
612.49214859475433
 20
418.43335311244402
 40
2.0000000000000346
 50
0
 51
180
  0
LINE
  8
_0-a_
  6
CONTINUOUS
 62
    4
 10
614.49214859475433
 20
418.43335311244402
 11
614.49214859475433
 21
417.93335311244402
  0
LINE
  8
_0-a_
  6
CONTINUOUS
 62
    4
 10
610.49214859475433
 20
418.43335311244402
 11
610.49214859475433
 21
417.93335311244414
  0
ARC
  8
_0-a_
  6
CONTINUOUS
 62
    4
 10
543.79214859475439
 20
410.68335311244391
 40
0.5
 50
270
 51
90
  0
LINE
  8
_0-a_
  6
CONTINUOUS
 62
    4
 10
543.79214859475439
 20
410.18335311244391
 11
542.29214859475451
 21
410.18335311244391
  0
LINE
  8
_0-a_
  6
CONTINUOUS
 62
    4
 10
542.29214859475451
 20
410.18335311244391
 11
542.29214859475451
 21
403.78335311244393
  0
LINE
  8
_0-a_
  6
CONTINUOUS
 62
    4
 10
542.29214859475451
 20
403.78335311244393
 11
543.29214859475451
 21
403.78335311244393
  0
LINE
  8
_0-a_
  6
CONTINUOUS
 62
    4
 10
543.29214859475451
 20
403.78335311244393
 11
543.52308870243007
 21
404.18335311244391
  0
LINE
  8
_0-a_
  6
CONTINUOUS
 62
    4
 10
543.52308870243007
 20
404.18335311244391
 11
545.06968991073029
 21
403.62043630834256
  0
ARC
  8
_0-a_
  6
CONTINUOUS
 62
    4
 10
544.93972225626658
 20
403.26335311244395
 40
0.3800000000000377
 50
269.99999999999045
 51
69.999999999987992
  0
LINE
  8
_0-a_
  6
CONTINUOUS
 62
    4
 10
544.93972225626646
 20
402.88335311244384
 11
542.29214859475451
 21
402.88335311244384
  0
LINE
  8
_0-a_
  6
CONTINUOUS
 62
    4
 10
542.29214859475451
 20
402.88335311244384
 11
542.29214859475451
 21
401.68335311244391
  0
LINE
  8
_0-a_
  6
CONTINUOUS
 62
    4
 10
542.29214859475451
 20
401.68335311244391
 11
541.79214859475439
 21
401.68335311244391
  0
LINE
  8
_0-a_
  6
CONTINUOUS
 62
    4
 10
541.79214859475439
 20
401.68335311244391
 11
541.29214859475439
 21
402.18335311244397
  0
LINE
  8
_0-a_
  6
CONTINUOUS
 62
    4
 10
541.29214859475439
 20
402.18335311244397
 11
541.29214859475439
 21
430.18335311244391
  0
LINE
  8
_0-a_
  6
CONTINUOUS
 62
    4
 10
541.29214859475439
 20
430.18335311244391
 11
541.79214859475439
 21
430.68335311244397
  0
LINE
  8
_0-a_
  6
CONTINUOUS
 62
    4
 10
541.79214859475439
 20
430.68335311244397
 11
542.29214859475451
 21
430.68335311244397
  0
LINE
  8
_0-a_
  6
CONTINUOUS
 62
    4
 10
542.29214859475451
 20
430.68335311244397
 11
542.29214859475451
 21
429.48335311244398
  0
LINE
  8
_0-a_
  6
CONTINUOUS
 62
    4
 10
542.29214859475451
 20
429.48335311244398
 11
544.93972225626646
 21
429.48335311244398
  0
ARC
  8
_0-a_
  6
CONTINUOUS
 62
    4
 10
544.93972225626658
 20
429.10335311244398
 40
0.3799999999999952
 50
290.00000000001319
 51
90.000000000010729
  0
LINE
  8
_0-a_
  6
CONTINUOUS
 62
    4
 10
545.06968991073029
 20
428.74626991654532
 11
543.52308870243007
 21
428.18335311244391
  0
LINE
  8
_0-a_
  6
CONTINUOUS
 62
    4
 10
543.52308870243007
 20
428.18335311244391
 11
543.29214859475451
 21
428.583353112444
  0
LINE
  8
_0-a_
  6
CONTINUOUS
 62
    4
 10
543.29214859475451
 20
428.583353112444
 11
542.29214859475451
 21
428.583353112444
  0
LINE
  8
_0-a_
  6
CONTINUOUS
 62
    4
 10
542.29214859475451
 20
428.583353112444
 11
542.29214859475451
 21
422.18335311244391
  0
LINE
  8
_0-a_
  6
CONTINUOUS
 62
    4
 10
542.29214859475451
 20
422.18335311244391
 11
543.79214859475439
 21
422.18335311244391
  0
ARC
  8
_0-a_
  6
CONTINUOUS
 62
    4
 10
543.79214859475439
 20
421.68335311244397
 40
0.5
 50
270
 51
90
  0
LINE
  8
_0-a_
  6
CONTINUOUS
 62
    4
 10
543.79214859475439
 20
421.18335311244391
 11
542.29214859475451
 21
421.18335311244391
  0
LINE
  8
_0-a_
  6
CONTINUOUS
 62
    4
 10
542.29214859475451
 20
421.18335311244391
 11
542.29214859475451
 21
411.18335311244397
  0
LINE
  8
_0-a_
  6
CONTINUOUS
 62
    4
 10
542.29214859475451
 20
411.18335311244397
 11
543.79214859475439
 21
411.18335311244397
  0
LINE
  8
_0-a_
  6
CONTINUOUS
 62
    4
 10
543.29214859475428
 20
427.98335311244398
 11
545.59214859475446
 21
427.98335311244398
  0
LINE
  8
_0-a_
  6
CONTINUOUS
 62
    4
 10
545.59214859475446
 20
427.98335311244398
 11
545.59214859475446
 21
429.48335311244398
  0
LINE
  8
_0-a_
  6
CONTINUOUS
 62
    4
 10
545.59214859475446
 20
429.48335311244398
 11
542.59214859475446
 21
429.48335311244398
  0
ARC
  8
_0-a_
  6
CONTINUOUS
 62
    4
 10
542.59214859475446
 20
429.78335311244382
 40
0.3000000000000114
 50
180.0000000000108
 51
270.0000000000108
  0
LINE
  8
_0-a_
  6
CONTINUOUS
 62
    4
 10
542.29214859475428
 20
429.78335311244382
 11
542.29214859475428
 21
430.68335311244397
  0
LINE
  8
_0-a_
  6
CONTINUOUS
 62
    4
 10
542.29214859475428
 20
430.68335311244397
 11
551.34214859475446
 21
430.68335311244397
  0
LINE
  8
_0-a_
  6
CONTINUOUS
 62
    4
 10
564.29214859475428
 20
430.18335311244391
 11
564.29214859475428
 21
429.43335311244391
  0
LINE
  8
_0-a_
  6
CONTINUOUS
 62
    4
 10
563.79214859475428
 20
428.93335311244391
 11
557.29214859475439
 21
428.93335311244391
  0
LINE
  8
_0-a_
  6
CONTINUOUS
 62
    4
 10
557.29214859475439
 20
428.93335311244391
 11
557.29214859475439
 21
422.1333531124439
  0
LINE
  8
_0-a_
  6
CONTINUOUS
 62
    4
 10
556.79214859475451
 20
421.63335311244396
 11
555.99214859475444
 21
421.63335311244396
  0
LINE
  8
_0-a_
  6
CONTINUOUS
 62
    4
 10
555.99214859475444
 20
421.63335311244396
 11
555.99214859475433
 21
428.43335311244397
  0
ARC
  8
_0-a_
  6
CONTINUOUS
 62
    4
 10
555.49214859475433
 20
428.43335311244397
 40
0.5
 50
0
 51
90
  0
LINE
  8
_0-a_
  6
CONTINUOUS
 62
    4
 10
555.49214859475433
 20
428.93335311244391
 11
552.49214859475433
 21
428.93335311244391
  0
LINE
  8
_0-a_
  6
CONTINUOUS
 62
    4
 10
552.49214859475433
 20
428.93335311244391
 11
552.49214859475433
 21
403.43335311244391
  0
LINE
  8
_0-a_
  6
CONTINUOUS
 62
    4
 10
552.49214859475433
 20
403.43335311244391
 11
555.49214859475433
 21
403.43335311244391
  0
ARC
  8
_0-a_
  6
CONTINUOUS
 62
    4
 10
555.49214859475433
 20
403.93335311244391
 40
0.5
 50
270
 51
0
  0
LINE
  8
_0-a_
  6
CONTINUOUS
 62
    4
 10
555.99214859475433
 20
403.93335311244391
 11
555.99214859475433
 21
410.73335311244398
  0
LINE
  8
_0-a_
  6
CONTINUOUS
 62
    4
 10
555.99214859475433
 20
410.73335311244398
 11
556.79214859475451
 21
410.73335311244398
  0
LINE
  8
_0-a_
  6
CONTINUOUS
 62
    4
 10
557.29214859475439
 20
410.23335311244398
 11
557.29214859475439
 21
403.43335311244391
  0
LINE
  8
_0-a_
  6
CONTINUOUS
 62
    4
 10
557.29214859475439
 20
403.43335311244391
 11
563.79214859475428
 21
403.43335311244391
  0
LINE
  8
_0-a_
  6
CONTINUOUS
 62
    4
 10
564.29214859475428
 20
402.93335311244397
 11
564.29214859475428
 21
402.18335311244397
  0
LINE
  8
_0-a_
  6
CONTINUOUS
 62
    4
 10
563.79214859475428
 20
401.68335311244391
 11
551.94214859475437
 21
401.68335311244391
  0
LINE
  8
_0-a_
  6
CONTINUOUS
 62
    4
 10
542.29214859475428
 20
401.68335311244391
 11
542.29214859475428
 21
402.58335311244389
  0
ARC
  8
_0-a_
  6
CONTINUOUS
 62
    4
 10
542.59214859475446
 20
402.58335311244389
 40
0.3000000000000114
 50
89.999999999989157
 51
179.99999999998911
  0
LINE
  8
_0-a_
  6
CONTINUOUS
 62
    4
 10
542.59214859475446
 20
402.88335311244396
 11
545.59214859475446
 21
402.88335311244396
  0
LINE
  8
_0-a_
  6
CONTINUOUS
 62
    4
 10
545.59214859475446
 20
402.88335311244396
 11
545.59214859475446
 21
404.38335311244396
  0
LINE
  8
_0-a_
  6
CONTINUOUS
 62
    4
 10
545.59214859475446
 20
404.38335311244396
 11
543.29214859475428
 21
404.38335311244396
  0
LINE
  8
_0-a_
  6
CONTINUOUS
 62
    4
 10
543.29214859475428
 20
404.38335311244396
 11
543.29214859475428
 21
403.88335311244407
  0
LINE
  8
_0-a_
  6
CONTINUOUS
 62
    4
 10
543.29214859475428
 20
403.88335311244407
 11
542.79214859475428
 21
403.88335311244407
  0
ARC
  8
_0-a_
  6
CONTINUOUS
 62
    4
 10
542.79214859475428
 20
404.38335311244396
 40
0.5
 50
180
 51
270
  0
LINE
  8
_0-a_
  6
CONTINUOUS
 62
    4
 10
542.29214859475428
 20
404.38335311244396
 11
542.29214859475428
 21
405.58335311244389
  0
LINE
  8
_0-a_
  6
CONTINUOUS
 62
    4
 10
542.29214859475428
 20
405.58335311244389
 11
545.79214859475428
 21
405.58335311244389
  0
ARC
  8
_0-a_
  6
CONTINUOUS
 62
    4
 10
545.79214859475428
 20
404.58335311244383
 40
1
 50
0
 51
90
  0
LINE
  8
_0-a_
  6
CONTINUOUS
 62
    4
 10
546.79214859475428
 20
404.58335311244383
 11
546.79214859475428
 21
403.18335311244391
  0
LINE
  8
_0-a_
  6
CONTINUOUS
 62
    4
 10
546.79214859475428
 20
403.18335311244391
 11
550.29214859475451
 21
403.18335311244391
  0
LINE
  8
_0-a_
  6
CONTINUOUS
 62
    4
 10
550.79214859475451
 20
403.68335311244397
 11
550.79214859475451
 21
428.68335311244391
  0
LINE
  8
_0-a_
  6
CONTINUOUS
 62
    4
 10
550.29214859475451
 20
429.18335311244397
 11
546.79214859475428
 21
429.18335311244397
  0
LINE
  8
_0-a_
  6
CONTINUOUS
 62
    4
 10
546.79214859475428
 20
429.18335311244397
 11
546.79214859475428
 21
427.78335311244416
  0
ARC
  8
_0-a_
  6
CONTINUOUS
 62
    4
 10
545.79214859475428
 20
427.78335311244416
 40
1
 50
270
 51
0
  0
LINE
  8
_0-a_
  6
CONTINUOUS
 62
    4
 10
545.79214859475428
 20
426.7833531124441
 11
542.29214859475428
 21
426.7833531124441
  0
LINE
  8
_0-a_
  6
CONTINUOUS
 62
    4
 10
542.29214859475428
 20
426.7833531124441
 11
542.29214859475428
 21
427.98335311244398
  0
ARC
  8
_0-a_
  6
CONTINUOUS
 62
    4
 10
542.79214859475428
 20
427.98335311244398
 40
0.5
 50
90
 51
180
  0
LINE
  8
_0-a_
  6
CONTINUOUS
 62
    4
 10
542.79214859475428
 20
428.48335311244392
 11
543.29214859475428
 21
428.48335311244392
  0
LINE
  8
_0-a_
  6
CONTINUOUS
 62
    4
 10
543.29214859475428
 20
428.48335311244392
 11
543.29214859475428
 21
427.98335311244398
  0
ARC
  8
_0-a_
  6
CONTINUOUS
 62
    4
 10
550.29214859475451
 20
428.68335311244391
 40
0.5
 50
0
 51
90
  0
ARC
  8
_0-a_
  6
CONTINUOUS
 62
    4
 10
550.29214859475451
 20
403.68335311244397
 40
0.5
 50
270
 51
0
  0
ARC
  8
_0-a_
  6
CONTINUOUS
 62
    4
 10
556.79214859475451
 20
410.23335311244398
 40
0.5
 50
0
 51
90
  0
ARC
  8
_0-a_
  6
CONTINUOUS
 62
    4
 10
556.79214859475451
 20
422.1333531124439
 40
0.5
 50
270
 51
0
  0
LINE
  8
_0-a_
  6
CONTINUOUS
 62
    4
 10
551.94214859475437
 20
430.68335311244397
 11
551.64214859475442
 21
430.3833531124439
  0
LINE
  8
_0-a_
  6
CONTINUOUS
 62
    4
 10
551.64214859475442
 20
430.3833531124439
 11
551.34214859475446
 21
430.68335311244397
  0
LINE
  8
_0-a_
  6
CONTINUOUS
 62
    4
 10
551.94214859475437
 20
430.68335311244397
 11
563.79214859475428
 21
430.68335311244397
  0
LINE
  8
_0-a_
  6
CONTINUOUS
 62
    4
 10
551.64214859475442
 20
401.98335311244381
 11
551.34214859475446
 21
401.68335311244391
  0
LINE
  8
_0-a_
  6
CONTINUOUS
 62
    4
 10
551.94214859475437
 20
401.68335311244391
 11
551.64214859475442
 21
401.98335311244381
  0
LINE
  8
_0-a_
  6
CONTINUOUS
 62
    4
 10
551.34214859475446
 20
401.68335311244391
 11
542.29214859475428
 21
401.68335311244391
  0
ARC
  8
_0-a_
  6
CONTINUOUS
 62
    4
 10
563.79214859475428
 20
429.43335311244391
 40
0.5
 50
270
 51
0
  0
ARC
  8
_0-a_
  6
CONTINUOUS
 62
    4
 10
563.79214859475428
 20
430.18335311244391
 40
0.5
 50
0
 51
90
  0
ARC
  8
_0-a_
  6
CONTINUOUS
 62
    4
 10
563.79214859475428
 20
402.93335311244397
 40
0.5
 50
0
 51
90
  0
ARC
  8
_0-a_
  6
CONTINUOUS
 62
    4
 10
563.79214859475428
 20
402.18335311244397
 40
0.5
 50
270
 51
0
  0
ARC
  8
_0-a_
  6
CONTINUOUS
 62
    4
 10
544.29214859475451
 20
410.43335311244397
 40
0.5
 50
270
 51
359.99999999999989
  0
ARC
  8
_0-a_
  6
CONTINUOUS
 62
    4
 10
544.29214859475451
 20
421.93335311244391
 40
0.5
 50
359.99999999999989
 51
89.999999999999673
  0
LINE
  8
_0-a_
  6
CONTINUOUS
 62
    4
 10
542.49214859475455
 20
409.93335311244391
 11
542.49214859475455
 21
405.83335311244355
  0
LINE
  8
_0-a_
  6
CONTINUOUS
 62
    4
 10
544.79214859475451
 20
421.93335311244391
 11
544.79214859475451
 21
410.43335311244397
  0
LINE
  8
_0-a_
  6
CONTINUOUS
 62
    4
 10
544.29214859475451
 20
409.93335311244391
 11
542.49214859475455
 21
409.93335311244391
  0
LINE
  8
_0-a_
  6
CONTINUOUS
 62
    4
 10
544.29214859475451
 20
422.43335311244397
 11
542.49214859475455
 21
422.43335311244397
  0
LINE
  8
_0-a_
  6
CONTINUOUS
 62
    4
 10
542.49214859475455
 20
426.53335311244365
 11
542.49214859475455
 21
422.43335311244397
  0
LINE
  8
_0-a_
  6
CONTINUOUS
 62
    4
 10
549.29214859475451
 20
418.18335311244374
 11
549.29214859475451
 21
414.1833531124438
  0
LINE
  8
_0-a_
  6
CONTINUOUS
 62
    4
 10
549.29214859475451
 20
418.18335311244374
 11
550.79214859475451
 21
418.18335311244374
  0
LINE
  8
_0-a_
  6
CONTINUOUS
 62
    4
 10
549.29214859475451
 20
414.1833531124438
 11
550.79214859475451
 21
414.1833531124438
  0
LINE
  8
_0-a_
  6
CONTINUOUS
 62
    4
 10
546.79214859475451
 20
419.18335311244346
 11
546.79214859475451
 21
428.9333531124438
  0
LINE
  8
_0-a_
  6
CONTINUOUS
 62
    4
 10
547.79214859475451
 20
419.18335311244346
 11
547.79214859475451
 21
413.18335311244448
  0
ARC
  8
_0-a_
  6
CONTINUOUS
 62
    4
 10
545.79214859475451
 20
404.8333531124436
 40
1
 50
0.0000000000007124
 51
90
  0
ARC
  8
_0-a_
  6
CONTINUOUS
 62
    4
 10
545.79214859475451
 20
427.53335311244371
 40
1
 50
270
 51
0.0000000000007378
  0
LINE
  8
_0-a_
  6
CONTINUOUS
 62
    4
 10
545.79214859475451
 20
405.83335311244355
 11
542.49214859475444
 21
405.83335311244355
  0
LINE
  8
_0-a_
  6
CONTINUOUS
 62
    4
 10
542.49214859475444
 20
426.53335311244365
 11
545.79214859475451
 21
426.53335311244365
  0
ARC
  8
_0-a_
  6
CONTINUOUS
 62
    4
 10
550.29214859475451
 20
403.93335311244374
 40
0.5
 50
270
 51
0
  0
ARC
  8
_0-a_
  6
CONTINUOUS
 62
    4
 10
550.29214859475451
 20
428.4333531124438
 40
0.5
 50
0
 51
90
  0
LINE
  8
_0-a_
  6
CONTINUOUS
 62
    4
 10
546.79214859475474
 20
403.4333531124438
 11
550.29214859475451
 21
403.4333531124438
  0
LINE
  8
_0-a_
  6
CONTINUOUS
 62
    4
 10
546.79214859475451
 20
428.9333531124438
 11
550.29214859475451
 21
428.9333531124438
  0
LINE
  8
_0-a_
  6
CONTINUOUS
 62
    4
 10
550.79214859475451
 20
428.4333531124438
 11
550.79214859475451
 21
403.93335311244374
  0
LINE
  8
_0-a_
  6
CONTINUOUS
 62
    4
 10
546.79214859475474
 20
403.4333531124438
 11
546.79214859475462
 21
413.18335311244448
  0
LINE
  8
_0-a_
  6
CONTINUOUS
 62
    4
 10
546.79214859475462
 20
413.18335311244448
 11
547.79214859475451
 21
413.18335311244448
  0
LINE
  8
_0-a_
  6
CONTINUOUS
 62
    4
 10
546.79214859475451
 20
419.18335311244346
 11
547.79214859475451
 21
419.18335311244346
  0
LINE
  8
_0-a_
  6
CONTINUOUS
 62
    4
 10
631.29214859475417
 20
401.68335311244391
 11
563.79214859475428
 21
401.6833531124438
  0
LINE
  8
_0-a_
  6
CONTINUOUS
 62
    4
 10
631.29214859475417
 20
403.43335311244391
 11
563.79214859475428
 21
403.43335311244385
  0
LINE
  8
_0-a_
  6
CONTINUOUS
 62
    4
 10
631.29214859475417
 20
414.43335311244408
 11
614.49214859475433
 21
414.43335311244408
  0
LINE
  8
_0-a_
  6
CONTINUOUS
 62
    4
 10
631.29214859475417
 20
417.93335311244402
 11
614.49214859475433
 21
417.93335311244402
  0
LINE
  8
_0-a_
  6
CONTINUOUS
 62
    4
 10
631.29214859475417
 20
428.93335311244402
 11
563.79214859475428
 21
428.93335311244391
  0
LINE
  8
_0-a_
  6
CONTINUOUS
 62
    4
 10
631.29214859475417
 20
430.68335311244397
 11
563.79214859475428
 21
430.68335311244402
  0
TEXT
  8
_0-d_寸法
 62
    4
 10
644.60842146228947
 20
393.19665349085727
 40
9
 41
1
 50
90
  1
55
  0
LINE
  8
_0-2_造作工事
  6
CONTINUOUS
 62
    7
 10
527.29214859475439
 20
378.18332836846162
 11
527.29214859475439
 21
430.6833531124438
  0
LINE
  8
_0-6_
  6
CONTINUOUS
 62
    4
 10
527.29214859475439
 20
429.57412123993231
 11
497.29214859475445
 21
399.57412123993248
  0
LINE
  8
_0-6_
  6
CONTINUOUS
 62
    4
 10
521.33031265540058
 20
430.6833531124438
 11
497.29214859475445
 21
406.6451890517983
  0
LINE
  8
_0-6_
  6
CONTINUOUS
 62
    4
 10
514.25924484353527
 20
430.6833531124438
 11
497.29214859475445
 21
413.71625686366292
  0
LINE
  8
_0-6_
  6
CONTINUOUS
 62
    4
 10
507.18817703166985
 20
430.6833531124438
 11
497.29214859475445
 21
420.78732467552845
  0
LINE
  8
_0-6_
  6
CONTINUOUS
 62
    4
 10
500.11710921980409
 20
430.6833531124438
 11
497.29214859475445
 21
427.85839248739421
  0
LINE
  8
_0-2_造作工事
  6
CONTINUOUS
 62
    7
 10
780.29215952334653
 20
378.18332836846162
 11
780.29215952334653
 21
430.6833531124438
  0
LINE
  8
_0-6_
  6
CONTINUOUS
 62
    4
 10
793.68395565272306
 20
430.6833531124438
 11
780.29215952334653
 21
417.29155698306744
  0
LINE
  8
_0-6_
  6
CONTINUOUS
 62
    4
 10
786.61288784085741
 20
430.6833531124438
 11
780.29215952334653
 21
424.3626247949328
  0
LINE
  8
_0-6_
  6
CONTINUOUS
 62
    4
 10
800.75502346458836
 20
430.6833531124438
 11
780.29215952334653
 21
410.22048917120185
  0
LINE
  8
_0-6_
  6
CONTINUOUS
 62
    4
 10
807.82609127645424
 20
430.6833531124438
 11
780.29215952334653
 21
403.14942135933649
  0
LINE
  8
_0-8_
  6
CONTINUOUS
 62
    7
 10
489.29217168913789
 20
504.81731538281969
 11
487.29214034676022
 21
504.81731538281969
  0
LINE
  8
_0-8_
  6
CONTINUOUS
 62
    7
 10
657.59214051172023
 20
470.68334898844682
 11
720.7921622039446
 21
470.68334898844682
  0
LINE
  8
_0-8_
  6
CONTINUOUS
 62
    7
 10
657.59214051172023
 20
473.68332177006641
 11
720.7921622039446
 21
473.68332177006641
  0
LINE
  8
_0-8_
  6
CONTINUOUS
 62
    7
 10
657.37200567351283
 20
487.18332919326099
 11
720.7921622039446
 21
487.18332919326099
  0
LINE
  8
_0-8_
  6
CONTINUOUS
 62
    7
 10
657.37200567351283
 20
503.68334651404865
 11
720.7921622039446
 21
503.68334651404865
  0
LINE
  8
_0-8_
  6
CONTINUOUS
 62
    7
 10
657.37200567351283
 20
506.68335641164151
 11
720.7921622039446
 21
506.68335641164151
  0
LINE
  8
_0-8_
  6
CONTINUOUS
 62
    7
 10
720.7921622039446
 20
490.18333909085396
 11
720.7921622039446
 21
503.68334651404865
  0
LINE
  8
_0-8_
  6
CONTINUOUS
 62
    7
 10
657.37200567351283
 20
490.18333909085396
 11
720.7921622039446
 21
490.18333909085396
  0
LINE
  8
_0-8_
  6
CONTINUOUS
 62
    7
 10
712.79216674034137
 20
503.68334651404865
 11
712.79216674034137
 21
490.18333909085396
  0
LINE
  8
_0-8_
  6
CONTINUOUS
 62
    7
 10
720.7921622039446
 20
473.68332177006641
 11
720.7921622039446
 21
487.18332919326099
  0
LINE
  8
_0-8_
  6
CONTINUOUS
 62
    7
 10
720.7921622039446
 20
490.18333909085396
 11
720.7921622039446
 21
487.18332919326099
  0
LINE
  8
_0-8_
  6
CONTINUOUS
 62
    7
 10
720.7921622039446
 20
506.68335641164151
 11
720.7921622039446
 21
503.68334651404865
  0
LINE
  8
_0-8_
  6
CONTINUOUS
 62
    7
 10
720.7921622039446
 20
473.68332177006641
 11
720.7921622039446
 21
470.68334898844682
  0
LINE
  8
_0-8_
  6
CONTINUOUS
 62
    7
 10
708.79214117155971
 20
470.68334898844682
 11
708.79214117155971
 21
467.68333909085396
  0
LINE
  8
_0-8_
  6
CONTINUOUS
 62
    7
 10
708.79214117155971
 20
509.68332919326099
 11
708.79214117155971
 21
506.68335641164151
  0
LINE
  8
_0-8_
  6
CONTINUOUS
 62
    7
 10
586.79215931714657
 20
506.68335641164151
 11
650.21229728959179
 21
506.68335641164151
  0
LINE
  8
_0-8_
  6
CONTINUOUS
 62
    7
 10
586.79215931714657
 20
503.68334651404865
 11
650.21229728959179
 21
503.68334651404865
  0
LINE
  8
_0-8_
  6
CONTINUOUS
 62
    7
 10
586.79215931714657
 20
473.6833217700663
 11
649.9921624513845
 21
473.68332177006641
  0
LINE
  8
_0-8_
  6
CONTINUOUS
 62
    7
 10
586.79215931714657
 20
470.68334898844677
 11
649.9921624513845
 21
470.68334898844682
  0
LINE
  8
_0-8_
  6
CONTINUOUS
 62
    7
 10
586.79215931714657
 20
490.18333909085396
 11
650.21229728959179
 21
490.18333909085396
  0
LINE
  8
_0-8_
  6
CONTINUOUS
 62
    7
 10
586.79215931714657
 20
487.18332919326099
 11
650.21229728959179
 21
487.18332919326099
  0
LINE
  8
_0-8_
  6
CONTINUOUS
 62
    7
 10
594.79217333873657
 20
490.18333909085396
 11
594.79217333873657
 21
503.68334651404865
  0
LINE
  8
_0-8_
  6
CONTINUOUS
 62
    7
 10
594.79217333873657
 20
473.6833217700663
 11
594.79217333873657
 21
487.18332919326099
  0
LINE
  8
_0-8_
  6
CONTINUOUS
 62
    7
 10
586.79215931714657
 20
487.18332919326099
 11
586.79215931714657
 21
473.6833217700663
  0
LINE
  8
_0-8_
  6
CONTINUOUS
 62
    7
 10
586.79215931714657
 20
503.68334651404865
 11
586.79215931714657
 21
490.18333909085396
  0
LINE
  8
_0-8_
  6
CONTINUOUS
 62
    7
 10
586.79215931714657
 20
490.18333909085396
 11
586.79215931714657
 21
487.18332919326099
  0
LINE
  8
_0-8_
  6
CONTINUOUS
 62
    7
 10
586.79215931714657
 20
473.6833217700663
 11
586.79215931714657
 21
470.68334898844677
  0
LINE
  8
_0-8_
  6
CONTINUOUS
 62
    7
 10
586.79215931714657
 20
506.68335641164151
 11
586.79215931714657
 21
503.68334651404865
  0
LINE
  8
_0-8_
  6
CONTINUOUS
 62
    7
 10
598.79216179154491
 20
506.68335641164151
 11
598.79216179154491
 21
509.68332919326099
  0
LINE
  8
_0-8_
  6
CONTINUOUS
 62
    7
 10
598.79216179154491
 20
467.68333909085396
 11
598.79216179154491
 21
470.68334898844677
  0
LINE
  8
_0-8_
  6
CONTINUOUS
 62
    3
 10
708.79214117155971
 20
467.68333909085396
 11
710.7921725139372
 21
454.68332094526693
  0
LINE
  8
_0-8_
  6
CONTINUOUS
 62
    3
 10
710.7921725139372
 20
454.68332094526693
 11
776.79213044916742
 21
454.68332094526693
  0
LINE
  8
_0-8_
  6
CONTINUOUS
 62
    3
 10
725.79214776995491
 20
533.68333414205745
 11
725.79214776995491
 21
467.68333909085396
  0
LINE
  8
_0-8_
  6
CONTINUOUS
 62
    3
 10
720.7921622039446
 20
470.68334898844682
 11
725.79214776995491
 21
470.68334898844682
  0
LINE
  8
_0-8_
  6
CONTINUOUS
 62
    3
 10
725.79214776995491
 20
506.68335641164151
 11
720.7921622039446
 21
506.68335641164151
  0
LINE
  8
_0-8_
  6
CONTINUOUS
 62
    3
 10
725.79214776995491
 20
509.68332919326099
 11
708.79214117155971
 21
509.68332919326099
  0
LINE
  8
_0-8_
  6
CONTINUOUS
 62
    3
 10
708.79214117155971
 20
516.68332754366224
 11
719.79216509074263
 21
527.68335146284505
  0
LINE
  8
_0-8_
  6
CONTINUOUS
 62
    3
 10
708.79214117155971
 20
509.68332919326099
 11
708.79214117155971
 21
516.68332754366224
  0
LINE
  8
_0-8_
  6
CONTINUOUS
 62
    3
 10
719.79216509074263
 20
527.68335146284505
 11
725.79214776995491
 21
527.68335146284505
  0
LINE
  8
_0-8_
  6
CONTINUOUS
 62
    3
 10
767.79215643034877
 20
533.68333414205745
 11
725.79214776995491
 21
533.68333414205745
  0
LINE
  8
_0-8_
  6
CONTINUOUS
 62
    3
 10
720.7921622039446
 20
506.68335641164151
 11
720.7921622039446
 21
509.68332919326099
  0
LINE
  8
_0-8_
  6
CONTINUOUS
 62
    3
 10
720.7921622039446
 20
467.68333909085396
 11
720.7921622039446
 21
470.68334898844682
  0
LINE
  8
_0-8_
  6
CONTINUOUS
 62
    3
 10
708.79214117155971
 20
467.68333909085396
 11
725.79214776995491
 21
467.68333909085396
  0
LINE
  8
_0-8_
  6
CONTINUOUS
 62
    3
 10
598.79216179154491
 20
467.68333909085396
 11
596.79216756514086
 21
454.68332094526693
  0
LINE
  8
_0-8_
  6
CONTINUOUS
 62
    3
 10
581.7921551931496
 20
467.68333909085396
 11
598.79216179154491
 21
467.68333909085396
  0
LINE
  8
_0-8_
  6
CONTINUOUS
 62
    3
 10
586.79215931714657
 20
470.68334898844677
 11
586.79215931714657
 21
467.68333909085396
  0
LINE
  8
_0-8_
  6
CONTINUOUS
 62
    3
 10
581.7921551931496
 20
470.68334898844677
 11
586.79215931714657
 21
470.68334898844677
  0
LINE
  8
_0-8_
  6
CONTINUOUS
 62
    3
 10
581.7921551931496
 20
533.68333414205745
 11
581.7921551931496
 21
467.68333909085396
  0
LINE
  8
_0-8_
  6
CONTINUOUS
 62
    3
 10
586.79215931714657
 20
506.68335641164151
 11
581.7921551931496
 21
506.68335641164151
  0
LINE
  8
_0-8_
  6
CONTINUOUS
 62
    3
 10
581.7921551931496
 20
509.68332919326099
 11
598.79216179154491
 21
509.68332919326099
  0
LINE
  8
_0-8_
  6
CONTINUOUS
 62
    3
 10
586.79215931714657
 20
509.68332919326099
 11
586.79215931714657
 21
506.68335641164151
  0
LINE
  8
_0-8_
  6
CONTINUOUS
 62
    3
 10
598.79216179154491
 20
509.68332919326099
 11
598.79216179154491
 21
516.68332754366224
  0
LINE
  8
_0-8_
  6
CONTINUOUS
 62
    3
 10
598.79216179154491
 20
516.68332754366224
 11
587.7921378723621
 21
527.68335146284505
  0
LINE
  8
_0-8_
  6
CONTINUOUS
 62
    3
 10
539.79216509074263
 20
533.68333414205745
 11
581.7921551931496
 21
533.68333414205745
  0
LINE
  8
_0-8_
  6
CONTINUOUS
 62
    3
 10
539.79216509074263
 20
505.81332087928303
 11
539.79216509074263
 21
533.68333414205745
  0
LINE
  8
_0-8_
  6
CONTINUOUS
 62
    3
 10
542.7921378723621
 20
504.08130398079271
 11
539.79216509074263
 21
505.81332087928303
  0
LINE
  8
_0-8_
  6
CONTINUOUS
 62
    3
 10
542.7921378723621
 20
487.54539551373182
 11
542.7921378723621
 21
504.08130398079271
  0
LINE
  8
_0-8_
  6
CONTINUOUS
 62
    3
 10
539.79216509074263
 20
454.68332094526693
 11
539.79216509074263
 21
485.81334149926818
  0
LINE
  8
_0-8_
  6
CONTINUOUS
 62
    3
 10
539.79216509074263
 20
485.81334149926818
 11
542.7921378723621
 21
487.54539551373182
  0
LINE
  8
_0-8_
  6
CONTINUOUS
 62
    3
 10
550.792151893952
 20
430.6833531124438
 11
550.792151893952
 21
451.68334816364739
  0
LINE
  8
_0-8_
  6
CONTINUOUS
 62
    3
 10
530.7921725139372
 20
451.68334816364739
 11
550.792151893952
 21
451.68334816364739
  0
LINE
  8
_0-8_
  6
CONTINUOUS
 62
    3
 10
550.792151893952
 20
451.68334816364739
 11
550.792151893952
 21
454.68332094526693
  0
LINE
  8
_0-8_
  6
CONTINUOUS
 62
    3
 10
497.29214859475445
 20
430.6833531124438
 11
550.792151893952
 21
430.6833531124438
  0
LINE
  8
_0-8_
  6
CONTINUOUS
 62
    3
 10
497.29214859475445
 20
535.68332836846162
 11
497.29214859475445
 21
430.6833531124438
  0
LINE
  8
_0-8_
  6
CONTINUOUS
 62
    3
 10
530.7921725139372
 20
454.68332094526693
 11
530.7921725139372
 21
451.68334816364739
  0
LINE
  8
_0-8_
  6
CONTINUOUS
 62
    3
 10
536.7921551931496
 20
467.68333909085396
 11
524.79215271875148
 21
467.68333909085396
  0
LINE
  8
_0-8_
  6
CONTINUOUS
 62
    3
 10
524.79215271875148
 20
477.68334733884802
 11
536.7921551931496
 21
477.68334733884802
  0
LINE
  8
_0-8_
  6
CONTINUOUS
 62
    3
 10
536.7921551931496
 20
477.68334733884802
 11
536.7921551931496
 21
483.08127181361579
  0
LINE
  8
_0-8_
  6
CONTINUOUS
 62
    3
 10
536.7921551931496
 20
454.68332094526693
 11
536.7921551931496
 21
467.68333909085396
  0
LINE
  8
_0-8_
  6
CONTINUOUS
 62
    3
 10
536.7921551931496
 20
514.81335057206172
 11
536.7921551931496
 21
535.68332836846162
  0
LINE
  8
_0-8_
  6
CONTINUOUS
 62
    3
 10
536.7921551931496
 20
535.68332836846162
 11
497.29214859475445
 21
535.68332836846162
  0
LINE
  8
_0-8_
  6
CONTINUOUS
 62
    3
 10
533.79214529555679
 20
513.08129655759808
 11
536.7921551931496
 21
514.81335057206172
  0
LINE
  8
_0-8_
  6
CONTINUOUS
 62
    3
 10
767.79215643034877
 20
454.68332094526693
 11
767.79215643034877
 21
485.81334149926818
  0
LINE
  8
_0-8_
  6
CONTINUOUS
 62
    3
 10
767.79215643034877
 20
485.81334149926818
 11
764.79216509074263
 21
487.54539551373182
  0
LINE
  8
_0-8_
  6
CONTINUOUS
 62
    3
 10
764.79216509074263
 20
487.54539551373182
 11
764.79216509074263
 21
504.08130398079271
  0
LINE
  8
_0-8_
  6
CONTINUOUS
 62
    3
 10
764.79216509074263
 20
504.08130398079271
 11
767.79215643034877
 21
505.81332087928303
  0
LINE
  8
_0-8_
  6
CONTINUOUS
 62
    3
 10
767.79215643034877
 20
505.81332087928303
 11
767.79215643034877
 21
533.68333414205745
  0
LINE
  8
_0-8_
  6
CONTINUOUS
 62
    7
 10
712.79216674034137
 20
487.18332919326099
 11
712.79216674034137
 21
473.68332177006641
  0
LINE
  8
_0-8_
  6
CONTINUOUS
 62
    7
 10
820.29216261634429
 20
505.81732940440963
 11
818.29214983195357
 21
505.81732940440963
  0
LINE
  8
_0-8_
  6
CONTINUOUS
 62
    7
 10
818.29214983195357
 20
505.81732940440963
 11
818.29214983195357
 21
485.81731290842151
  0
LINE
  8
_0-8_
  6
CONTINUOUS
 62
    7
 10
818.29214983195357
 20
485.81731290842151
 11
820.29216261634429
 21
485.81731290842151
  0
LINE
  8
_0-8_
  6
CONTINUOUS
 62
    7
 10
820.29216261634429
 20
485.81731290842151
 11
820.29216261634429
 21
505.81732940440963
  0
LINE
  8
_0-8_
  6
CONTINUOUS
 62
    7
 10
818.29214983195357
 20
503.81733517800552
 11
773.79215766754783
 21
503.81733517800552
  0
LINE
  8
_0-8_
  6
CONTINUOUS
 62
    7
 10
773.79215766754783
 20
505.81732940440963
 11
773.79215766754783
 21
485.81731290842151
  0
LINE
  8
_0-8_
  6
CONTINUOUS
 62
    7
 10
773.79215766754783
 20
505.81732940440963
 11
771.79216344114366
 21
505.81732940440963
  0
LINE
  8
_0-8_
  6
CONTINUOUS
 62
    7
 10
771.79216344114366
 20
505.81732940440963
 11
771.79216344114366
 21
485.81731290842151
  0
LINE
  8
_0-8_
  6
CONTINUOUS
 62
    7
 10
771.79216344114366
 20
485.81731290842151
 11
773.79215766754783
 21
485.81731290842151
  0
LINE
  8
_0-8_
  6
CENTER1
 62
    4
 10
540.79214364595782
 20
495.81732115641557
 11
478.29214776995491
 21
495.81732115641557
  0
LINE
  8
_0-8_
  6
CONTINUOUS
 62
    3
 10
756.79215106915262
 20
430.6833531124438
 11
756.79215106915262
 21
451.68334816364739
  0
LINE
  8
_0-8_
  6
CONTINUOUS
 62
    3
 10
756.79215106915262
 20
451.68334816364739
 11
776.79214900715419
 21
451.68334816364739
  0
LINE
  8
_0-8_
  6
CONTINUOUS
 62
    3
 10
770.79214776995491
 20
454.68332094526693
 11
770.79214776995491
 21
467.68333909085396
  0
LINE
  8
_0-8_
  6
CONTINUOUS
 62
    3
 10
770.79214776995491
 20
467.68333909085396
 11
782.79215024435325
 21
467.68333909085396
  0
LINE
  8
_0-8_
  6
CONTINUOUS
 62
    3
 10
782.79215024435325
 20
467.68333909085396
 11
782.79215024435325
 21
477.68334733884802
  0
LINE
  8
_0-8_
  6
CONTINUOUS
 62
    3
 10
782.79215024435325
 20
477.68334733884802
 11
770.79214776995491
 21
477.68334733884802
  0
LINE
  8
_0-8_
  6
CONTINUOUS
 62
    3
 10
770.79214776995491
 20
477.68334733884802
 11
770.79214776995491
 21
483.08127181361579
  0
LINE
  8
_0-8_
  6
CONTINUOUS
 62
    3
 10
770.79214776995491
 20
483.08127181361579
 11
773.79215766754783
 21
484.81332582807943
  0
LINE
  8
_0-8_
  6
CONTINUOUS
 62
    3
 10
810.29215436835023
 20
535.68332836846162
 11
810.29215436835023
 21
430.68335311244397
  0
LINE
  8
_0-8_
  6
CONTINUOUS
 62
    3
 10
770.79214776995491
 20
535.68332836846162
 11
810.29215436835023
 21
535.68332836846162
  0
LINE
  8
_0-8_
  6
CONTINUOUS
 62
    3
 10
773.79215766754783
 20
513.08129655759808
 11
770.79214776995491
 21
514.81335057206172
  0
LINE
  8
_0-8_
  6
CONTINUOUS
 62
    3
 10
773.79215766754783
 20
484.81332582807943
 11
773.79215766754783
 21
513.08129655759808
  0
LINE
  8
_0-8_
  6
CONTINUOUS
 62
    3
 10
810.29215436835023
 20
430.68335311244397
 11
756.79215106915262
 21
430.6833531124438
  0
LINE
  8
_0-8_
  6
CONTINUOUS
 62
    3
 10
756.79215106915262
 20
451.68334816364739
 11
756.79215106915262
 21
454.68332094526693
  0
LINE
  8
_0-8_
  6
CONTINUOUS
 62
    3
 10
776.79213044916742
 20
454.68332094526693
 11
776.79213044916742
 21
451.68334816364739
  0
LINE
  8
_0-8_
  6
CONTINUOUS
 62
    3
 10
524.79215271875137
 20
467.68333909085396
 11
524.79215271875137
 21
477.68334733884802
  0
LINE
  8
_0-8_
  6
CONTINUOUS
 62
    7
 10
533.79214529555679
 20
502.81732115641563
 11
489.29217168913789
 21
502.81732115641563
  0
LINE
  8
_0-8_
  6
CONTINUOUS
 62
    7
 10
489.29217168913789
 20
488.81732115641557
 11
533.79214529555679
 21
488.81732115641557
  0
LINE
  8
_0-8_
  6
CONTINUOUS
 62
    7
 10
535.79213952196085
 20
488.81732115641557
 11
533.79214529555679
 21
488.81732115641557
  0
LINE
  8
_0-8_
  6
CONTINUOUS
 62
    7
 10
489.29217168913789
 20
504.81731538281969
 11
489.29217168913789
 21
486.81732693001152
  0
LINE
  8
_0-8_
  6
CONTINUOUS
 62
    7
 10
535.79213952196085
 20
486.81732693001152
 11
535.79213952196085
 21
504.81731538281969
  0
LINE
  8
_0-8_
  6
CONTINUOUS
 62
    7
 10
487.29214034676022
 20
504.81731538281969
 11
487.29214034676022
 21
486.81732693001152
  0
LINE
  8
_0-8_
  6
CONTINUOUS
 62
    7
 10
487.29214034676022
 20
486.81732693001152
 11
489.29217168913789
 21
486.81732693001152
  0
LINE
  8
_0-8_
  6
CONTINUOUS
 62
    7
 10
533.79214529555679
 20
486.81732693001152
 11
533.79214529555679
 21
505.81732940440963
  0
LINE
  8
_0-8_
  6
CONTINUOUS
 62
    7
 10
535.79213952196085
 20
504.81731538281969
 11
533.79214529555679
 21
504.81731538281969
  0
LINE
  8
_0-8_
  6
CONTINUOUS
 62
    7
 10
533.79214529555679
 20
486.81732693001152
 11
535.79213952196085
 21
486.81732693001152
  0
LINE
  8
_0-8_
  6
CONTINUOUS
 62
    3
 10
536.7921551931496
 20
483.08127181361579
 11
533.79214529555679
 21
484.81332582807943
  0
LINE
  8
_0-8_
  6
CONTINUOUS
 62
    3
 10
533.79214529555679
 20
484.81332582807943
 11
533.79214529555679
 21
513.08129655759808
  0
LINE
  8
_0-8_
  6
CONTINUOUS
 62
    3
 10
587.79213787236199
 20
527.68335146284505
 11
581.79215519314971
 21
527.68335146284505
  0
LINE
  8
_0-8_
  6
CONTINUOUS
 62
    4
 10
725.79214776995491
 20
496.4737098041868
 11
762.80189118134081
 21
533.48345321557281
  0
LINE
  8
_0-8_
  6
CONTINUOUS
 62
    4
 10
710.81222006333542
 20
454.55301373436009
 11
723.94254541982934
 21
467.68333909085396
  0
LINE
  8
_0-8_
  6
CONTINUOUS
 62
    4
 10
725.79214776995491
 20
469.53294144097953
 11
767.79215643034877
 21
511.53295010137344
  0
LINE
  8
_0-8_
  6
CONTINUOUS
 62
    4
 10
787.01730987018891
 20
503.81733517800552
 11
810.29215436835023
 21
527.09217967616723
  0
LINE
  8
_0-8_
  6
CONTINUOUS
 62
    4
 10
737.88329563745094
 20
454.68332094526693
 11
767.79215643034877
 21
484.59218173816515
  0
LINE
  8
_0-8_
  6
CONTINUOUS
 62
    4
 10
767.76486453104405
 20
430.6833531124438
 11
810.29215436835023
 21
473.21064294975048
  0
LINE
  8
_0-8_
  6
CONTINUOUS
 62
    4
 10
508.73082919077819
 20
502.81732115641563
 11
536.7921551931496
 21
530.87864715878709
  0
LINE
  8
_0-8_
  6
CONTINUOUS
 62
    4
 10
497.29214859475445
 20
518.31940892359955
 11
514.65606803961657
 21
535.68332836846162
  0
LINE
  8
_0-8_
  6
CONTINUOUS
 62
    4
 10
539.79216509074263
 20
506.93788869317279
 11
566.53761053962717
 21
533.68333414205745
  0
LINE
  8
_0-8_
  6
CONTINUOUS
 62
    4
 10
539.79216509074263
 20
479.99712032996439
 11
581.7921551931496
 21
521.9971104323721
  0
LINE
  8
_0-8_
  6
CONTINUOUS
 62
    4
 10
497.29214859475445
 20
437.49710383397576
 11
527.4783838516322
 21
467.68333909085396
  0
LINE
  8
_0-8_
  6
CONTINUOUS
 62
    4
 10
541.41913406925346
 20
454.68332094526693
 11
581.7921551931496
 21
495.05634206916341
  0
LINE
  8
_0-8_
  6
CONTINUOUS
 62
    4
 10
517.41916623643044
 20
430.6833531124438
 11
538.41916128763387
 21
451.68334816364739
  0
LINE
  8
_0-8_
  6
CONTINUOUS
 62
    4
 10
544.35993459963913
 20
430.6833531124438
 11
550.792151893952
 21
437.11557040675666
  0
LINE
  8
_0-8_
  6
CONTINUOUS
 62
    4
 10
595.30067079567084
 20
454.68332094526693
 11
597.06334742343529
 21
456.44599757303143
  0
LINE
  8
_0-8_
  6
CONTINUOUS
 62
    4
 10
590.7634535719759
 20
509.68332919326099
 11
587.76348079035654
 21
506.68335641164151
  0
LINE
  8
_0-8_
  6
CONTINUOUS
 62
    4
 10
592.17766713434912
 20
509.68332919326099
 11
589.17769435272953
 21
506.68335641164151
  0
LINE
  8
_0-8_
  6
CONTINUOUS
 62
    4
 10
593.59188069672223
 20
509.68332919326099
 11
590.59190791510264
 21
506.68335641164151
  0
LINE
  8
_0-8_
  6
CONTINUOUS
 62
    4
 10
595.00609425909533
 20
509.68332919326099
 11
592.00612147747586
 21
506.68335641164151
  0
LINE
  8
_0-8_
  6
CONTINUOUS
 62
    4
 10
596.42030782146844
 20
509.68332919326099
 11
593.42033503984885
 21
506.68335641164151
  0
LINE
  8
_0-8_
  6
CONTINUOUS
 62
    4
 10
597.83452138384143
 20
509.68332919326099
 11
594.83454860222196
 21
506.68335641164151
  0
LINE
  8
_0-8_
  6
CONTINUOUS
 62
    4
 10
587.9350264472298
 20
509.68332919326099
 11
586.79215931714657
 21
508.54046206317787
  0
LINE
  8
_0-8_
  6
CONTINUOUS
 62
    4
 10
589.34924000960291
 20
509.68332919326099
 11
586.79215931714657
 21
507.12624850080476
  0
LINE
  8
_0-8_
  6
CONTINUOUS
 62
    4
 10
598.79216179154491
 20
507.81254247621825
 11
597.66297572696817
 21
506.68335641164151
  0
LINE
  8
_0-8_
  6
CONTINUOUS
 62
    4
 10
598.79216179154491
 20
509.22675603859136
 11
596.24876216459506
 21
506.68335641164151
  0
LINE
  8
_0-8_
  6
CONTINUOUS
 62
    4
 10
590.7634535719759
 20
470.68334898844677
 11
587.76348079035654
 21
467.6833762068274
  0
LINE
  8
_0-8_
  6
CONTINUOUS
 62
    4
 10
592.17766713434912
 20
470.68334898844677
 11
589.17769435272953
 21
467.6833762068274
  0
LINE
  8
_0-8_
  6
CONTINUOUS
 62
    4
 10
593.59188069672223
 20
470.68334898844677
 11
590.59190791510264
 21
467.6833762068274
  0
LINE
  8
_0-8_
  6
CONTINUOUS
 62
    4
 10
595.00609425909533
 20
470.68334898844677
 11
592.00612147747586
 21
467.6833762068274
  0
LINE
  8
_0-8_
  6
CONTINUOUS
 62
    4
 10
596.42030782146844
 20
470.68334898844677
 11
593.42033503984885
 21
467.6833762068274
  0
LINE
  8
_0-8_
  6
CONTINUOUS
 62
    4
 10
597.83452138384143
 20
470.68334898844677
 11
594.83454860222196
 21
467.6833762068274
  0
LINE
  8
_0-8_
  6
CONTINUOUS
 62
    4
 10
587.9350264472298
 20
470.68334898844677
 11
586.79215931714657
 21
469.54048185836382
  0
LINE
  8
_0-8_
  6
CONTINUOUS
 62
    4
 10
589.34924000960291
 20
470.68334898844677
 11
586.79215931714657
 21
468.12626829599066
  0
LINE
  8
_0-8_
  6
CONTINUOUS
 62
    4
 10
598.79216179154491
 20
468.81256227140415
 11
597.66297572696817
 21
467.6833762068274
  0
LINE
  8
_0-8_
  6
CONTINUOUS
 62
    4
 10
598.79216179154491
 20
470.2267758337772
 11
596.24876216459506
 21
467.6833762068274
  0
LINE
  8
_0-8_
  6
CONTINUOUS
 62
    4
 10
712.76343542638904
 20
509.68332919326099
 11
709.76346264476956
 21
506.68335641164151
  0
LINE
  8
_0-8_
  6
CONTINUOUS
 62
    4
 10
714.17764898876203
 20
509.68332919326099
 11
711.17767620714267
 21
506.68335641164151
  0
LINE
  8
_0-8_
  6
CONTINUOUS
 62
    4
 10
715.59186255113514
 20
509.68332919326099
 11
712.59188976951566
 21
506.68335641164151
  0
LINE
  8
_0-8_
  6
CONTINUOUS
 62
    4
 10
717.00607611350836
 20
509.68332919326099
 11
714.00610333188888
 21
506.68335641164151
  0
LINE
  8
_0-8_
  6
CONTINUOUS
 62
    4
 10
718.42028967588135
 20
509.68332919326099
 11
715.42031689426199
 21
506.68335641164151
  0
LINE
  8
_0-8_
  6
CONTINUOUS
 62
    4
 10
719.83450323825446
 20
509.68332919326099
 11
716.83453045663498
 21
506.68335641164151
  0
LINE
  8
_0-8_
  6
CONTINUOUS
 62
    4
 10
709.93500830164271
 20
509.68332919326099
 11
708.79214117155971
 21
508.54046206317787
  0
LINE
  8
_0-8_
  6
CONTINUOUS
 62
    4
 10
711.34922186401582
 20
509.68332919326099
 11
708.79214117155971
 21
507.12624850080476
  0
LINE
  8
_0-8_
  6
CONTINUOUS
 62
    4
 10
720.79214364595805
 20
507.81254247621825
 11
719.66295758138131
 21
506.68335641164151
  0
LINE
  8
_0-8_
  6
CONTINUOUS
 62
    4
 10
720.79214364595805
 20
509.22675603859136
 11
718.2487440190082
 21
506.68335641164151
  0
LINE
  8
_0-8_
  6
CONTINUOUS
 62
    4
 10
712.76343542638904
 20
470.68334898844682
 11
709.76346264476956
 21
467.6833762068274
  0
LINE
  8
_0-8_
  6
CONTINUOUS
 62
    4
 10
714.17764898876203
 20
470.68334898844682
 11
711.17767620714267
 21
467.6833762068274
  0
LINE
  8
_0-8_
  6
CONTINUOUS
 62
    4
 10
715.59186255113514
 20
470.68334898844682
 11
712.59188976951566
 21
467.6833762068274
  0
LINE
  8
_0-8_
  6
CONTINUOUS
 62
    4
 10
717.00607611350836
 20
470.68334898844682
 11
714.00610333188888
 21
467.6833762068274
  0
LINE
  8
_0-8_
  6
CONTINUOUS
 62
    4
 10
718.42028967588135
 20
470.68334898844682
 11
715.42031689426199
 21
467.6833762068274
  0
LINE
  8
_0-8_
  6
CONTINUOUS
 62
    4
 10
719.83450323825446
 20
470.68334898844682
 11
716.83453045663498
 21
467.6833762068274
  0
LINE
  8
_0-8_
  6
CONTINUOUS
 62
    4
 10
709.93500830164271
 20
470.68334898844682
 11
708.79214117155971
 21
469.54048185836382
  0
LINE
  8
_0-8_
  6
CONTINUOUS
 62
    4
 10
711.34922186401582
 20
470.68334898844682
 11
708.79214117155971
 21
468.12626829599066
  0
LINE
  8
_0-8_
  6
CONTINUOUS
 62
    4
 10
720.79214364595805
 20
468.81256227140415
 11
719.66295758138131
 21
467.6833762068274
  0
LINE
  8
_0-8_
  6
CONTINUOUS
 62
    4
 10
720.79214364595805
 20
470.22677583377731
 11
718.2487440190082
 21
467.6833762068274
  0
LINE
  8
_0-8_
  6
CONTINUOUS
 62
    4
 10
534.76346676876653
 20
454.68332094526693
 11
531.76349398714706
 21
451.68334816364739
  0
LINE
  8
_0-8_
  6
CONTINUOUS
 62
    4
 10
536.17768033113964
 20
454.68332094526693
 11
533.17770754952016
 21
451.68334816364739
  0
LINE
  8
_0-8_
  6
CONTINUOUS
 62
    4
 10
537.59189389351263
 20
454.68332094526693
 11
534.59192111189327
 21
451.68334816364739
  0
LINE
  8
_0-8_
  6
CONTINUOUS
 62
    4
 10
539.00610745588585
 20
454.68332094526693
 11
536.00613467426638
 21
451.68334816364739
  0
LINE
  8
_0-8_
  6
CONTINUOUS
 62
    4
 10
540.42032101825896
 20
454.68332094526693
 11
537.42034823663948
 21
451.68334816364739
  0
LINE
  8
_0-8_
  6
CONTINUOUS
 62
    4
 10
541.83453458063195
 20
454.68332094526693
 11
538.83456179901259
 21
451.68334816364739
  0
LINE
  8
_0-8_
  6
CONTINUOUS
 62
    4
 10
531.93503964402032
 20
454.68332094526693
 11
530.7921725139372
 21
453.54045381518381
  0
LINE
  8
_0-8_
  6
CONTINUOUS
 62
    4
 10
533.34925320639331
 20
454.68332094526693
 11
530.7921725139372
 21
452.1262402528107
  0
LINE
  8
_0-8_
  6
CONTINUOUS
 62
    4
 10
544.66296170537817
 20
454.68332094526693
 11
541.6629889237588
 21
451.68334816364739
  0
LINE
  8
_0-8_
  6
CONTINUOUS
 62
    4
 10
543.24874814300517
 20
454.68332094526693
 11
540.2487753613857
 21
451.68334816364739
  0
LINE
  8
_0-8_
  6
CONTINUOUS
 62
    4
 10
546.07717526775127
 20
454.68332094526693
 11
543.07720248613191
 21
451.68334816364739
  0
LINE
  8
_0-8_
  6
CONTINUOUS
 62
    4
 10
548.90560239249749
 20
454.68332094526693
 11
545.90562961087812
 21
451.68334816364739
  0
LINE
  8
_0-8_
  6
CONTINUOUS
 62
    4
 10
547.49138883012449
 20
454.68332094526693
 11
544.49141604850502
 21
451.68334816364739
  0
LINE
  8
_0-8_
  6
CONTINUOUS
 62
    4
 10
550.31981595487059
 20
454.68332094526693
 11
547.31984317325123
 21
451.68334816364739
  0
LINE
  8
_0-8_
  6
CONTINUOUS
 62
    4
 10
550.792151893952
 20
452.32722975960206
 11
550.14827029799744
 21
451.68334816364739
  0
LINE
  8
_0-8_
  6
CONTINUOUS
 62
    4
 10
550.792151893952
 20
453.74144332197511
 11
548.73405673562434
 21
451.68334816364739
  0
LINE
  8
_0-8_
  6
CONTINUOUS
 62
    4
 10
760.76344532398184
 20
454.68332094526693
 11
757.76347254236248
 21
451.68334816364739
  0
LINE
  8
_0-8_
  6
CONTINUOUS
 62
    4
 10
762.17765888635495
 20
454.68332094526693
 11
759.17768610473547
 21
451.68334816364739
  0
LINE
  8
_0-8_
  6
CONTINUOUS
 62
    4
 10
763.59187244872817
 20
454.68332094526693
 11
760.59189966710869
 21
451.68334816364739
  0
LINE
  8
_0-8_
  6
CONTINUOUS
 62
    4
 10
765.00608601110116
 20
454.68332094526693
 11
762.0061132294818
 21
451.68334816364739
  0
LINE
  8
_0-8_
  6
CONTINUOUS
 62
    4
 10
766.42029957347427
 20
454.68332094526693
 11
763.42032679185479
 21
451.68334816364739
  0
LINE
  8
_0-8_
  6
CONTINUOUS
 62
    4
 10
767.83451313584737
 20
454.68332094526693
 11
764.83454035422801
 21
451.68334816364739
  0
LINE
  8
_0-8_
  6
CONTINUOUS
 62
    4
 10
757.93501819923563
 20
454.68332094526693
 11
756.79215106915262
 21
453.54045381518381
  0
LINE
  8
_0-8_
  6
CONTINUOUS
 62
    4
 10
759.34923176160885
 20
454.68332094526693
 11
756.79215106915262
 21
452.1262402528107
  0
LINE
  8
_0-8_
  6
CONTINUOUS
 62
    4
 10
770.66294026059359
 20
454.68332094526693
 11
767.66296747897411
 21
451.68334816364739
  0
LINE
  8
_0-8_
  6
CONTINUOUS
 62
    4
 10
769.24872669822048
 20
454.68332094526693
 11
766.24875391660089
 21
451.68334816364739
  0
LINE
  8
_0-8_
  6
CONTINUOUS
 62
    4
 10
772.07715382296669
 20
454.68332094526693
 11
769.07718104134733
 21
451.68334816364739
  0
LINE
  8
_0-8_
  6
CONTINUOUS
 62
    4
 10
774.90558094771291
 20
454.68332094526693
 11
771.90560816609343
 21
451.68334816364739
  0
LINE
  8
_0-8_
  6
CONTINUOUS
 62
    4
 10
773.4913673853398
 20
454.68332094526693
 11
770.49139460372021
 21
451.68334816364739
  0
LINE
  8
_0-8_
  6
CONTINUOUS
 62
    4
 10
776.31979451008601
 20
454.68332094526693
 11
773.31982172846665
 21
451.68334816364739
  0
LINE
  8
_0-8_
  6
CONTINUOUS
 62
    4
 10
776.79213044916742
 20
452.32722975960206
 11
776.14824885321275
 21
451.68334816364739
  0
LINE
  8
_0-8_
  6
CONTINUOUS
 62
    4
 10
776.79213044916742
 20
453.74144332197511
 11
774.73403529083953
 21
451.68334816364739
  0
LINE
  8
_0-8_
  6
CONTINUOUS
 62
    4
 10
782.89712918934083
 20
430.68332836846162
 11
780.29215436835023
 21
428.0783535474709
  0
LINE
  8
_0-8_
  6
CONTINUOUS
 62
    4
 10
794.70563289425218
 20
430.68335311244397
 11
810.29215436835023
 21
446.26987458654219
  0
TEXT
  8
_f-0_
 62
    7
 10
617.22437012407465
 20
68.274084998313697
 40
12
 41
1
 50
0
  1
NASⅡ(回転窓)納図
  0
TEXT
  8
_f-0_
 62
    7
 10
841.50003000207869
 20
57.737246332941965
 40
12
 41
1
 50
0
  1
平断面
  0
LINE
  8
_0-9_
  6
CENTER2
 62
    4
 10
762.79213890336132
 20
495.81732115641557
 11
830.29213890336121
 21
495.81732115641557
  0
LINE
  8
_0-7_ハッチ
  6
CONTINUOUS
 62
    4
 10
770.79214776995491
 20
514.5329414409797
 11
791.94253469743683
 21
535.68332836846162
  0
LINE
  8
_0-8_
  6
CONTINUOUS
 62
    4
 10
782.79215024435325
 20
472.6514071889614
 11
797.95805019021736
 21
487.81730713482557
  0
LINE
  8
_0-8_
  6
CONTINUOUS
 62
    4
 10
725.79214776995491
 20
523.41447816739446
 11
735.86112281813325
 21
533.48345321557281
  0
LINE
  8
_0-7_ハッチ
  6
CONTINUOUS
 62
    4
 10
497.29214859475445
 20
464.43787219718445
 11
521.67159755398552
 21
488.81732115641557
  0
LINE
  8
_0-8_
  6
CONTINUOUS
 62
    3
 10
596.79216756514086
 20
454.68332094526693
 11
571.66372729746411
 21
454.68332094526693
  0
LINE
  8
_0-8_
  6
CONTINUOUS
 62
    3
 10
571.66372729746411
 20
454.68332094526693
 11
530.7921725139372
 21
454.68332094526693
  0
LINE
  8
_0-7_ハッチ
  6
CONTINUOUS
 62
    4
 10
568.35990243246215
 20
454.68332094526693
 11
581.7921551931496
 21
468.11557370595449
  0
LINE
  8
_0-8_
  6
CONTINUOUS
 62
    4
 10
756.79215106915262
 20
446.6514080137606
 11
761.82409121903936
 21
451.68334816364739
  0
LINE
  8
_0-8_
  6
CONTINUOUS
 62
    4
 10
764.82406400065884
 20
454.68332094526693
 11
767.79215643034877
 21
457.65141337495675
  0
LINE
  8
_0-7_ハッチ
  6
CONTINUOUS
 62
    4
 10
770.79214776995491
 20
460.65140471456294
 11
777.82408214624593
 21
467.68333909085396
  0
ENDSEC
  0
EOF
